ISO-10303-21;
HEADER;
FILE_DESCRIPTION(
/* description */ ('3-D model version:1'),
/* implementation_level */ '2;1');
FILE_NAME(
/* name */ 'A1B08-4032060',
/* time_stamp */ '2016-12-02T13:58:48',
/* author */ ('InteractiveCad'),
/* organization */ ('AB Sandvik Coromant'),
/* preprocessor_version */ 'ST-DEVELOPER v11',
/* originating_system */ 'SIEMENS UGS NX 6.0',
/* authorization */ '');
FILE_SCHEMA(('AUTOMOTIVE_DESIGN'));
ENDSEC;
DATA;
#10=SHAPE_REPRESENTATION_RELATIONSHIP('None','relationship between ds29E19D8hgw-None and ds29E19D8hgw-None',
     #22,#11);
#11=ADVANCED_BREP_SHAPE_REPRESENTATION('ds29E19D8hgw-None',(#32),#645);
#12=SHAPE_DEFINITION_REPRESENTATION(#13,#22);
#13=PRODUCT_DEFINITION_SHAPE('','',#14);
#14=PRODUCT_DEFINITION(' ','',#16,#15);
#15=PRODUCT_DEFINITION_CONTEXT('part definition',#21,'design');
#16=PRODUCT_DEFINITION_FORMATION_WITH_SPECIFIED_SOURCE(' ',' ',#18,.NOT_KNOWN.);
#17=PRODUCT_RELATED_PRODUCT_CATEGORY('part','',(#18));
#18=PRODUCT('ds29E19D8hgw','ds29E19D8hgw',' ',(#19));
#19=PRODUCT_CONTEXT(' ',#21,'mechanical');
#20=APPLICATION_PROTOCOL_DEFINITION('international standard','automotive_design',
     2001,#21);
#21=APPLICATION_CONTEXT('core data for automotive mechanical design processes');
#22=SHAPE_REPRESENTATION('ds29E19D8hgw-None',(#366),#645);
#23=PRESENTATION_LAYER_ASSIGNMENT('1','Layer 1',(#32));
#24=STYLED_ITEM('',(#25),#32);
#25=PRESENTATION_STYLE_ASSIGNMENT((#26));
#26=SURFACE_STYLE_USAGE(.BOTH.,#27);
#27=SURFACE_SIDE_STYLE('',(#28));
#28=SURFACE_STYLE_FILL_AREA(#29);
#29=FILL_AREA_STYLE('',(#30));
#30=FILL_AREA_STYLE_COLOUR('',#31);
#31=COLOUR_RGB('Medium Gray',0.490196078431373,0.490196078431373,0.490196078431373);
#32=MANIFOLD_SOLID_BREP('NOCUT',#33);
#33=CLOSED_SHELL('',(#114,#115,#116,#117,#118,#119,#120,#121,#122,#123,#124,#125,
     #126,#127,#128,#129,#130,#131,#132,#133,#134,#135,#136,#137,#138,#139,#140,
     #141,#142,#143,#144));
#34=CYLINDRICAL_SURFACE('',#376,21.8750000000014);
#35=CYLINDRICAL_SURFACE('',#384,31.7625);
#36=CYLINDRICAL_SURFACE('',#392,28.0);
#37=CYLINDRICAL_SURFACE('',#400,31.7625000000004);
#38=CYLINDRICAL_SURFACE('',#408,24.0);
#39=CYLINDRICAL_SURFACE('',#416,29.0);
#40=CYLINDRICAL_SURFACE('',#420,18.5);
#41=CYLINDRICAL_SURFACE('',#424,16.0);
#42=CONICAL_SURFACE('',#372,12.3896029012821,8.29782682820855);
#43=CONICAL_SURFACE('',#374,22.1535820415749,14.9999999998939);
#44=CONICAL_SURFACE('',#386,31.7625,59.9999999999768);
#45=CONICAL_SURFACE('',#398,28.9625471694791,59.9999999999999);
#46=TOROIDAL_SURFACE('',#370,11.44954820082,0.95);
#47=TOROIDAL_SURFACE('',#378,22.875,1.0);
#48=TOROIDAL_SURFACE('',#382,30.7625,1.0);
#49=TOROIDAL_SURFACE('',#390,28.75,0.75);
#50=TOROIDAL_SURFACE('',#394,28.75,0.75);
#51=TOROIDAL_SURFACE('',#402,30.7625,1.0);
#52=TOROIDAL_SURFACE('',#406,25.0,1.0);
#53=TOROIDAL_SURFACE('',#410,25.0,1.0);
#54=TOROIDAL_SURFACE('',#414,28.0,1.0);
#55=TOROIDAL_SURFACE('',#426,15.0,1.0);
#56=FACE_BOUND('',#157,.T.);
#57=FACE_BOUND('',#158,.T.);
#58=FACE_BOUND('',#159,.T.);
#59=FACE_BOUND('',#160,.T.);
#60=FACE_BOUND('',#161,.T.);
#61=FACE_BOUND('',#162,.T.);
#62=FACE_BOUND('',#163,.T.);
#63=FACE_BOUND('',#164,.T.);
#64=FACE_BOUND('',#165,.T.);
#65=FACE_BOUND('',#166,.T.);
#66=FACE_BOUND('',#167,.T.);
#67=FACE_BOUND('',#168,.T.);
#68=FACE_BOUND('',#169,.T.);
#69=FACE_BOUND('',#170,.T.);
#70=FACE_BOUND('',#171,.T.);
#71=FACE_BOUND('',#172,.T.);
#72=FACE_BOUND('',#173,.T.);
#73=FACE_BOUND('',#174,.T.);
#74=FACE_BOUND('',#175,.T.);
#75=FACE_BOUND('',#176,.T.);
#76=FACE_BOUND('',#177,.T.);
#77=FACE_BOUND('',#178,.T.);
#78=FACE_BOUND('',#179,.T.);
#79=FACE_BOUND('',#180,.T.);
#80=FACE_BOUND('',#181,.T.);
#81=FACE_BOUND('',#182,.T.);
#82=FACE_BOUND('',#183,.T.);
#83=FACE_BOUND('',#184,.T.);
#84=FACE_BOUND('',#185,.T.);
#85=FACE_BOUND('',#186,.T.);
#86=FACE_BOUND('',#187,.T.);
#87=FACE_BOUND('',#188,.T.);
#88=FACE_BOUND('',#189,.T.);
#89=FACE_BOUND('',#190,.T.);
#90=FACE_BOUND('',#191,.T.);
#91=FACE_BOUND('',#192,.T.);
#92=FACE_BOUND('',#193,.T.);
#93=FACE_BOUND('',#194,.T.);
#94=FACE_BOUND('',#195,.T.);
#95=FACE_BOUND('',#196,.T.);
#96=FACE_BOUND('',#197,.T.);
#97=FACE_BOUND('',#198,.T.);
#98=FACE_BOUND('',#199,.T.);
#99=FACE_BOUND('',#200,.T.);
#100=FACE_BOUND('',#201,.T.);
#101=FACE_BOUND('',#202,.T.);
#102=FACE_BOUND('',#203,.T.);
#103=FACE_BOUND('',#204,.T.);
#104=FACE_BOUND('',#205,.T.);
#105=FACE_BOUND('',#206,.T.);
#106=FACE_BOUND('',#207,.T.);
#107=FACE_BOUND('',#208,.T.);
#108=FACE_BOUND('',#209,.T.);
#109=FACE_BOUND('',#210,.T.);
#110=FACE_BOUND('',#211,.T.);
#111=FACE_BOUND('',#212,.T.);
#112=FACE_BOUND('',#213,.T.);
#113=FACE_BOUND('',#214,.T.);
#114=ADVANCED_FACE('',(#154),#145,.T.);
#115=ADVANCED_FACE('',(#56,#57),#46,.T.);
#116=ADVANCED_FACE('',(#58,#59),#42,.T.);
#117=ADVANCED_FACE('',(#60,#61),#43,.T.);
#118=ADVANCED_FACE('',(#62,#63),#34,.T.);
#119=ADVANCED_FACE('',(#64,#65),#47,.F.);
#120=ADVANCED_FACE('',(#66,#67),#146,.T.);
#121=ADVANCED_FACE('',(#68,#69),#48,.T.);
#122=ADVANCED_FACE('',(#70,#71),#35,.T.);
#123=ADVANCED_FACE('',(#72,#73),#44,.T.);
#124=ADVANCED_FACE('',(#74,#75),#147,.T.);
#125=ADVANCED_FACE('',(#76,#77),#49,.F.);
#126=ADVANCED_FACE('',(#78,#79),#36,.T.);
#127=ADVANCED_FACE('',(#80,#81),#50,.F.);
#128=ADVANCED_FACE('',(#82,#83),#148,.T.);
#129=ADVANCED_FACE('',(#84,#85),#45,.T.);
#130=ADVANCED_FACE('',(#86,#87),#37,.T.);
#131=ADVANCED_FACE('',(#88,#89),#51,.T.);
#132=ADVANCED_FACE('',(#90,#91),#149,.T.);
#133=ADVANCED_FACE('',(#92,#93),#52,.F.);
#134=ADVANCED_FACE('',(#94,#95),#38,.T.);
#135=ADVANCED_FACE('',(#96,#97),#53,.F.);
#136=ADVANCED_FACE('',(#98,#99),#150,.T.);
#137=ADVANCED_FACE('',(#100,#101),#54,.T.);
#138=ADVANCED_FACE('',(#102,#103),#39,.T.);
#139=ADVANCED_FACE('',(#104,#105),#151,.T.);
#140=ADVANCED_FACE('',(#106,#107),#40,.F.);
#141=ADVANCED_FACE('',(#108,#109),#152,.T.);
#142=ADVANCED_FACE('',(#110,#111),#41,.T.);
#143=ADVANCED_FACE('',(#112,#113),#55,.T.);
#144=ADVANCED_FACE('',(#155),#153,.T.);
#145=PLANE('',#368);
#146=PLANE('',#380);
#147=PLANE('',#388);
#148=PLANE('',#396);
#149=PLANE('',#404);
#150=PLANE('',#412);
#151=PLANE('',#418);
#152=PLANE('',#422);
#153=PLANE('',#427);
#154=FACE_OUTER_BOUND('',#156,.T.);
#155=FACE_OUTER_BOUND('',#215,.T.);
#156=EDGE_LOOP('',(#216));
#157=EDGE_LOOP('',(#217));
#158=EDGE_LOOP('',(#218));
#159=EDGE_LOOP('',(#219));
#160=EDGE_LOOP('',(#220));
#161=EDGE_LOOP('',(#221));
#162=EDGE_LOOP('',(#222));
#163=EDGE_LOOP('',(#223));
#164=EDGE_LOOP('',(#224));
#165=EDGE_LOOP('',(#225));
#166=EDGE_LOOP('',(#226));
#167=EDGE_LOOP('',(#227));
#168=EDGE_LOOP('',(#228));
#169=EDGE_LOOP('',(#229));
#170=EDGE_LOOP('',(#230));
#171=EDGE_LOOP('',(#231));
#172=EDGE_LOOP('',(#232));
#173=EDGE_LOOP('',(#233));
#174=EDGE_LOOP('',(#234));
#175=EDGE_LOOP('',(#235));
#176=EDGE_LOOP('',(#236));
#177=EDGE_LOOP('',(#237));
#178=EDGE_LOOP('',(#238));
#179=EDGE_LOOP('',(#239));
#180=EDGE_LOOP('',(#240));
#181=EDGE_LOOP('',(#241));
#182=EDGE_LOOP('',(#242));
#183=EDGE_LOOP('',(#243));
#184=EDGE_LOOP('',(#244));
#185=EDGE_LOOP('',(#245));
#186=EDGE_LOOP('',(#246));
#187=EDGE_LOOP('',(#247));
#188=EDGE_LOOP('',(#248));
#189=EDGE_LOOP('',(#249));
#190=EDGE_LOOP('',(#250));
#191=EDGE_LOOP('',(#251));
#192=EDGE_LOOP('',(#252));
#193=EDGE_LOOP('',(#253));
#194=EDGE_LOOP('',(#254));
#195=EDGE_LOOP('',(#255));
#196=EDGE_LOOP('',(#256));
#197=EDGE_LOOP('',(#257));
#198=EDGE_LOOP('',(#258));
#199=EDGE_LOOP('',(#259));
#200=EDGE_LOOP('',(#260));
#201=EDGE_LOOP('',(#261));
#202=EDGE_LOOP('',(#262));
#203=EDGE_LOOP('',(#263));
#204=EDGE_LOOP('',(#264));
#205=EDGE_LOOP('',(#265));
#206=EDGE_LOOP('',(#266));
#207=EDGE_LOOP('',(#267));
#208=EDGE_LOOP('',(#268));
#209=EDGE_LOOP('',(#269));
#210=EDGE_LOOP('',(#270));
#211=EDGE_LOOP('',(#271));
#212=EDGE_LOOP('',(#272));
#213=EDGE_LOOP('',(#273));
#214=EDGE_LOOP('',(#274));
#215=EDGE_LOOP('',(#275));
#216=ORIENTED_EDGE('',*,*,#306,.T.);
#217=ORIENTED_EDGE('',*,*,#307,.T.);
#218=ORIENTED_EDGE('',*,*,#306,.F.);
#219=ORIENTED_EDGE('',*,*,#308,.T.);
#220=ORIENTED_EDGE('',*,*,#307,.F.);
#221=ORIENTED_EDGE('',*,*,#309,.T.);
#222=ORIENTED_EDGE('',*,*,#308,.F.);
#223=ORIENTED_EDGE('',*,*,#310,.T.);
#224=ORIENTED_EDGE('',*,*,#309,.F.);
#225=ORIENTED_EDGE('',*,*,#311,.T.);
#226=ORIENTED_EDGE('',*,*,#310,.F.);
#227=ORIENTED_EDGE('',*,*,#312,.T.);
#228=ORIENTED_EDGE('',*,*,#311,.F.);
#229=ORIENTED_EDGE('',*,*,#313,.T.);
#230=ORIENTED_EDGE('',*,*,#312,.F.);
#231=ORIENTED_EDGE('',*,*,#314,.T.);
#232=ORIENTED_EDGE('',*,*,#313,.F.);
#233=ORIENTED_EDGE('',*,*,#315,.T.);
#234=ORIENTED_EDGE('',*,*,#314,.F.);
#235=ORIENTED_EDGE('',*,*,#316,.T.);
#236=ORIENTED_EDGE('',*,*,#315,.F.);
#237=ORIENTED_EDGE('',*,*,#317,.T.);
#238=ORIENTED_EDGE('',*,*,#316,.F.);
#239=ORIENTED_EDGE('',*,*,#318,.T.);
#240=ORIENTED_EDGE('',*,*,#317,.F.);
#241=ORIENTED_EDGE('',*,*,#319,.T.);
#242=ORIENTED_EDGE('',*,*,#318,.F.);
#243=ORIENTED_EDGE('',*,*,#320,.T.);
#244=ORIENTED_EDGE('',*,*,#319,.F.);
#245=ORIENTED_EDGE('',*,*,#321,.T.);
#246=ORIENTED_EDGE('',*,*,#320,.F.);
#247=ORIENTED_EDGE('',*,*,#322,.T.);
#248=ORIENTED_EDGE('',*,*,#321,.F.);
#249=ORIENTED_EDGE('',*,*,#323,.T.);
#250=ORIENTED_EDGE('',*,*,#322,.F.);
#251=ORIENTED_EDGE('',*,*,#324,.T.);
#252=ORIENTED_EDGE('',*,*,#323,.F.);
#253=ORIENTED_EDGE('',*,*,#325,.T.);
#254=ORIENTED_EDGE('',*,*,#324,.F.);
#255=ORIENTED_EDGE('',*,*,#326,.T.);
#256=ORIENTED_EDGE('',*,*,#325,.F.);
#257=ORIENTED_EDGE('',*,*,#327,.T.);
#258=ORIENTED_EDGE('',*,*,#326,.F.);
#259=ORIENTED_EDGE('',*,*,#328,.T.);
#260=ORIENTED_EDGE('',*,*,#327,.F.);
#261=ORIENTED_EDGE('',*,*,#329,.T.);
#262=ORIENTED_EDGE('',*,*,#328,.F.);
#263=ORIENTED_EDGE('',*,*,#330,.T.);
#264=ORIENTED_EDGE('',*,*,#329,.F.);
#265=ORIENTED_EDGE('',*,*,#331,.T.);
#266=ORIENTED_EDGE('',*,*,#330,.F.);
#267=ORIENTED_EDGE('',*,*,#332,.T.);
#268=ORIENTED_EDGE('',*,*,#331,.F.);
#269=ORIENTED_EDGE('',*,*,#333,.T.);
#270=ORIENTED_EDGE('',*,*,#332,.F.);
#271=ORIENTED_EDGE('',*,*,#334,.T.);
#272=ORIENTED_EDGE('',*,*,#333,.F.);
#273=ORIENTED_EDGE('',*,*,#335,.T.);
#274=ORIENTED_EDGE('',*,*,#334,.F.);
#275=ORIENTED_EDGE('',*,*,#335,.F.);
#276=VERTEX_POINT('',#554);
#277=VERTEX_POINT('',#557);
#278=VERTEX_POINT('',#560);
#279=VERTEX_POINT('',#563);
#280=VERTEX_POINT('',#566);
#281=VERTEX_POINT('',#569);
#282=VERTEX_POINT('',#572);
#283=VERTEX_POINT('',#575);
#284=VERTEX_POINT('',#578);
#285=VERTEX_POINT('',#581);
#286=VERTEX_POINT('',#584);
#287=VERTEX_POINT('',#587);
#288=VERTEX_POINT('',#590);
#289=VERTEX_POINT('',#593);
#290=VERTEX_POINT('',#596);
#291=VERTEX_POINT('',#599);
#292=VERTEX_POINT('',#602);
#293=VERTEX_POINT('',#605);
#294=VERTEX_POINT('',#608);
#295=VERTEX_POINT('',#611);
#296=VERTEX_POINT('',#614);
#297=VERTEX_POINT('',#617);
#298=VERTEX_POINT('',#620);
#299=VERTEX_POINT('',#623);
#300=VERTEX_POINT('',#626);
#301=VERTEX_POINT('',#629);
#302=VERTEX_POINT('',#632);
#303=VERTEX_POINT('',#635);
#304=VERTEX_POINT('',#638);
#305=VERTEX_POINT('',#641);
#306=EDGE_CURVE('',#276,#276,#336,.T.);
#307=EDGE_CURVE('',#277,#277,#337,.T.);
#308=EDGE_CURVE('',#278,#278,#338,.T.);
#309=EDGE_CURVE('',#279,#279,#339,.T.);
#310=EDGE_CURVE('',#280,#280,#340,.T.);
#311=EDGE_CURVE('',#281,#281,#341,.T.);
#312=EDGE_CURVE('',#282,#282,#342,.T.);
#313=EDGE_CURVE('',#283,#283,#343,.T.);
#314=EDGE_CURVE('',#284,#284,#344,.T.);
#315=EDGE_CURVE('',#285,#285,#345,.T.);
#316=EDGE_CURVE('',#286,#286,#346,.T.);
#317=EDGE_CURVE('',#287,#287,#347,.T.);
#318=EDGE_CURVE('',#288,#288,#348,.T.);
#319=EDGE_CURVE('',#289,#289,#349,.T.);
#320=EDGE_CURVE('',#290,#290,#350,.T.);
#321=EDGE_CURVE('',#291,#291,#351,.T.);
#322=EDGE_CURVE('',#292,#292,#352,.T.);
#323=EDGE_CURVE('',#293,#293,#353,.T.);
#324=EDGE_CURVE('',#294,#294,#354,.T.);
#325=EDGE_CURVE('',#295,#295,#355,.T.);
#326=EDGE_CURVE('',#296,#296,#356,.T.);
#327=EDGE_CURVE('',#297,#297,#357,.T.);
#328=EDGE_CURVE('',#298,#298,#358,.T.);
#329=EDGE_CURVE('',#299,#299,#359,.T.);
#330=EDGE_CURVE('',#300,#300,#360,.T.);
#331=EDGE_CURVE('',#301,#301,#361,.T.);
#332=EDGE_CURVE('',#302,#302,#362,.T.);
#333=EDGE_CURVE('',#303,#303,#363,.T.);
#334=EDGE_CURVE('',#304,#304,#364,.T.);
#335=EDGE_CURVE('',#305,#305,#365,.T.);
#336=CIRCLE('',#367,11.44954820082);
#337=CIRCLE('',#369,12.3896029012821);
#338=CIRCLE('',#371,22.1535820415749);
#339=CIRCLE('',#373,21.8750000000028);
#340=CIRCLE('',#375,21.875);
#341=CIRCLE('',#377,22.875);
#342=CIRCLE('',#379,30.7625);
#343=CIRCLE('',#381,31.7625);
#344=CIRCLE('',#383,31.7625);
#345=CIRCLE('',#385,28.9625471694793);
#346=CIRCLE('',#387,28.75);
#347=CIRCLE('',#389,28.0);
#348=CIRCLE('',#391,28.0);
#349=CIRCLE('',#393,28.75);
#350=CIRCLE('',#395,28.9625471694791);
#351=CIRCLE('',#397,31.7625000000009);
#352=CIRCLE('',#399,31.7625);
#353=CIRCLE('',#401,30.7625);
#354=CIRCLE('',#403,25.0);
#355=CIRCLE('',#405,24.0);
#356=CIRCLE('',#407,24.0);
#357=CIRCLE('',#409,25.0);
#358=CIRCLE('',#411,28.0);
#359=CIRCLE('',#413,29.0);
#360=CIRCLE('',#415,29.0);
#361=CIRCLE('',#417,18.5);
#362=CIRCLE('',#419,18.5);
#363=CIRCLE('',#421,16.0);
#364=CIRCLE('',#423,16.0);
#365=CIRCLE('',#425,15.0);
#366=AXIS2_PLACEMENT_3D('',#552,#428,#429);
#367=AXIS2_PLACEMENT_3D('',#553,#430,#431);
#368=AXIS2_PLACEMENT_3D('',#555,#432,#433);
#369=AXIS2_PLACEMENT_3D('',#556,#434,#435);
#370=AXIS2_PLACEMENT_3D('',#558,#436,#437);
#371=AXIS2_PLACEMENT_3D('',#559,#438,#439);
#372=AXIS2_PLACEMENT_3D('',#561,#440,#441);
#373=AXIS2_PLACEMENT_3D('',#562,#442,#443);
#374=AXIS2_PLACEMENT_3D('',#564,#444,#445);
#375=AXIS2_PLACEMENT_3D('',#565,#446,#447);
#376=AXIS2_PLACEMENT_3D('',#567,#448,#449);
#377=AXIS2_PLACEMENT_3D('',#568,#450,#451);
#378=AXIS2_PLACEMENT_3D('',#570,#452,#453);
#379=AXIS2_PLACEMENT_3D('',#571,#454,#455);
#380=AXIS2_PLACEMENT_3D('',#573,#456,#457);
#381=AXIS2_PLACEMENT_3D('',#574,#458,#459);
#382=AXIS2_PLACEMENT_3D('',#576,#460,#461);
#383=AXIS2_PLACEMENT_3D('',#577,#462,#463);
#384=AXIS2_PLACEMENT_3D('',#579,#464,#465);
#385=AXIS2_PLACEMENT_3D('',#580,#466,#467);
#386=AXIS2_PLACEMENT_3D('',#582,#468,#469);
#387=AXIS2_PLACEMENT_3D('',#583,#470,#471);
#388=AXIS2_PLACEMENT_3D('',#585,#472,#473);
#389=AXIS2_PLACEMENT_3D('',#586,#474,#475);
#390=AXIS2_PLACEMENT_3D('',#588,#476,#477);
#391=AXIS2_PLACEMENT_3D('',#589,#478,#479);
#392=AXIS2_PLACEMENT_3D('',#591,#480,#481);
#393=AXIS2_PLACEMENT_3D('',#592,#482,#483);
#394=AXIS2_PLACEMENT_3D('',#594,#484,#485);
#395=AXIS2_PLACEMENT_3D('',#595,#486,#487);
#396=AXIS2_PLACEMENT_3D('',#597,#488,#489);
#397=AXIS2_PLACEMENT_3D('',#598,#490,#491);
#398=AXIS2_PLACEMENT_3D('',#600,#492,#493);
#399=AXIS2_PLACEMENT_3D('',#601,#494,#495);
#400=AXIS2_PLACEMENT_3D('',#603,#496,#497);
#401=AXIS2_PLACEMENT_3D('',#604,#498,#499);
#402=AXIS2_PLACEMENT_3D('',#606,#500,#501);
#403=AXIS2_PLACEMENT_3D('',#607,#502,#503);
#404=AXIS2_PLACEMENT_3D('',#609,#504,#505);
#405=AXIS2_PLACEMENT_3D('',#610,#506,#507);
#406=AXIS2_PLACEMENT_3D('',#612,#508,#509);
#407=AXIS2_PLACEMENT_3D('',#613,#510,#511);
#408=AXIS2_PLACEMENT_3D('',#615,#512,#513);
#409=AXIS2_PLACEMENT_3D('',#616,#514,#515);
#410=AXIS2_PLACEMENT_3D('',#618,#516,#517);
#411=AXIS2_PLACEMENT_3D('',#619,#518,#519);
#412=AXIS2_PLACEMENT_3D('',#621,#520,#521);
#413=AXIS2_PLACEMENT_3D('',#622,#522,#523);
#414=AXIS2_PLACEMENT_3D('',#624,#524,#525);
#415=AXIS2_PLACEMENT_3D('',#625,#526,#527);
#416=AXIS2_PLACEMENT_3D('',#627,#528,#529);
#417=AXIS2_PLACEMENT_3D('',#628,#530,#531);
#418=AXIS2_PLACEMENT_3D('',#630,#532,#533);
#419=AXIS2_PLACEMENT_3D('',#631,#534,#535);
#420=AXIS2_PLACEMENT_3D('',#633,#536,#537);
#421=AXIS2_PLACEMENT_3D('',#634,#538,#539);
#422=AXIS2_PLACEMENT_3D('',#636,#540,#541);
#423=AXIS2_PLACEMENT_3D('',#637,#542,#543);
#424=AXIS2_PLACEMENT_3D('',#639,#544,#545);
#425=AXIS2_PLACEMENT_3D('',#640,#546,#547);
#426=AXIS2_PLACEMENT_3D('',#642,#548,#549);
#427=AXIS2_PLACEMENT_3D('',#643,#550,#551);
#428=DIRECTION('',(0.0,0.0,1.0));
#429=DIRECTION('',(1.0,0.0,0.0));
#430=DIRECTION('',(0.0,0.0,1.0));
#431=DIRECTION('',(1.0,0.0,0.0));
#432=DIRECTION('',(0.0,0.0,1.0));
#433=DIRECTION('',(1.0,0.0,0.0));
#434=DIRECTION('',(0.0,0.0,1.0));
#435=DIRECTION('',(1.0,0.0,0.0));
#436=DIRECTION('',(0.0,0.0,1.0));
#437=DIRECTION('',(1.0,0.0,0.0));
#438=DIRECTION('',(0.0,0.0,1.0));
#439=DIRECTION('',(1.0,0.0,0.0));
#440=DIRECTION('',(0.0,0.0,-1.0));
#441=DIRECTION('',(-1.0,0.0,2.63110814527926E-16));
#442=DIRECTION('',(0.0,0.0,1.0));
#443=DIRECTION('',(1.0,0.0,0.0));
#444=DIRECTION('',(0.0,0.0,1.0));
#445=DIRECTION('',(1.0,0.0,-1.91349949453386E-16));
#446=DIRECTION('',(0.0,0.0,1.0));
#447=DIRECTION('',(1.0,0.0,0.0));
#448=DIRECTION('',(0.0,0.0,1.0));
#449=DIRECTION('',(1.0,0.0,0.0));
#450=DIRECTION('',(0.0,0.0,1.0));
#451=DIRECTION('',(1.0,0.0,0.0));
#452=DIRECTION('',(0.0,0.0,1.0));
#453=DIRECTION('',(1.0,0.0,0.0));
#454=DIRECTION('',(0.0,0.0,1.0));
#455=DIRECTION('',(1.0,0.0,0.0));
#456=DIRECTION('',(0.0,0.0,1.0));
#457=DIRECTION('',(1.0,0.0,0.0));
#458=DIRECTION('',(0.0,0.0,1.0));
#459=DIRECTION('',(1.0,0.0,0.0));
#460=DIRECTION('',(0.0,0.0,1.0));
#461=DIRECTION('',(1.0,0.0,0.0));
#462=DIRECTION('',(0.0,0.0,1.0));
#463=DIRECTION('',(1.0,0.0,0.0));
#464=DIRECTION('',(0.0,0.0,1.0));
#465=DIRECTION('',(1.0,0.0,0.0));
#466=DIRECTION('',(0.0,0.0,1.0));
#467=DIRECTION('',(1.0,0.0,0.0));
#468=DIRECTION('',(0.0,0.0,1.0));
#469=DIRECTION('',(1.0,0.0,3.14722374488838E-17));
#470=DIRECTION('',(0.0,0.0,1.0));
#471=DIRECTION('',(1.0,0.0,0.0));
#472=DIRECTION('',(0.0,0.0,-1.0));
#473=DIRECTION('',(-1.0,0.0,0.0));
#474=DIRECTION('',(0.0,0.0,1.0));
#475=DIRECTION('',(1.0,0.0,0.0));
#476=DIRECTION('',(0.0,0.0,1.0));
#477=DIRECTION('',(1.0,0.0,0.0));
#478=DIRECTION('',(0.0,0.0,1.0));
#479=DIRECTION('',(1.0,0.0,0.0));
#480=DIRECTION('',(0.0,0.0,1.0));
#481=DIRECTION('',(1.0,0.0,0.0));
#482=DIRECTION('',(0.0,0.0,1.0));
#483=DIRECTION('',(1.0,0.0,0.0));
#484=DIRECTION('',(0.0,0.0,1.0));
#485=DIRECTION('',(1.0,0.0,0.0));
#486=DIRECTION('',(0.0,0.0,1.0));
#487=DIRECTION('',(1.0,0.0,0.0));
#488=DIRECTION('',(0.0,0.0,1.0));
#489=DIRECTION('',(1.0,0.0,0.0));
#490=DIRECTION('',(0.0,0.0,1.0));
#491=DIRECTION('',(1.0,0.0,0.0));
#492=DIRECTION('',(0.0,0.0,-1.0));
#493=DIRECTION('',(-1.0,0.0,4.72834158939462E-17));
#494=DIRECTION('',(0.0,0.0,1.0));
#495=DIRECTION('',(1.0,0.0,0.0));
#496=DIRECTION('',(0.0,0.0,1.0));
#497=DIRECTION('',(1.0,0.0,0.0));
#498=DIRECTION('',(0.0,0.0,1.0));
#499=DIRECTION('',(1.0,0.0,0.0));
#500=DIRECTION('',(0.0,0.0,1.0));
#501=DIRECTION('',(1.0,0.0,0.0));
#502=DIRECTION('',(0.0,0.0,1.0));
#503=DIRECTION('',(1.0,0.0,0.0));
#504=DIRECTION('',(0.0,0.0,-1.0));
#505=DIRECTION('',(-1.0,0.0,0.0));
#506=DIRECTION('',(0.0,0.0,1.0));
#507=DIRECTION('',(1.0,0.0,0.0));
#508=DIRECTION('',(0.0,0.0,1.0));
#509=DIRECTION('',(1.0,0.0,0.0));
#510=DIRECTION('',(0.0,0.0,1.0));
#511=DIRECTION('',(1.0,0.0,0.0));
#512=DIRECTION('',(0.0,0.0,1.0));
#513=DIRECTION('',(1.0,0.0,0.0));
#514=DIRECTION('',(0.0,0.0,1.0));
#515=DIRECTION('',(1.0,0.0,0.0));
#516=DIRECTION('',(0.0,0.0,1.0));
#517=DIRECTION('',(1.0,0.0,0.0));
#518=DIRECTION('',(0.0,0.0,1.0));
#519=DIRECTION('',(1.0,0.0,0.0));
#520=DIRECTION('',(0.0,0.0,1.0));
#521=DIRECTION('',(1.0,0.0,0.0));
#522=DIRECTION('',(0.0,0.0,1.0));
#523=DIRECTION('',(1.0,0.0,0.0));
#524=DIRECTION('',(0.0,0.0,1.0));
#525=DIRECTION('',(1.0,0.0,0.0));
#526=DIRECTION('',(0.0,0.0,1.0));
#527=DIRECTION('',(1.0,0.0,0.0));
#528=DIRECTION('',(0.0,0.0,1.0));
#529=DIRECTION('',(1.0,0.0,0.0));
#530=DIRECTION('',(0.0,0.0,1.0));
#531=DIRECTION('',(1.0,0.0,0.0));
#532=DIRECTION('',(0.0,0.0,-1.0));
#533=DIRECTION('',(-1.0,0.0,0.0));
#534=DIRECTION('',(0.0,0.0,1.0));
#535=DIRECTION('',(1.0,0.0,0.0));
#536=DIRECTION('',(0.0,0.0,1.0));
#537=DIRECTION('',(1.0,0.0,0.0));
#538=DIRECTION('',(0.0,0.0,1.0));
#539=DIRECTION('',(1.0,0.0,0.0));
#540=DIRECTION('',(0.0,0.0,-1.0));
#541=DIRECTION('',(-1.0,0.0,0.0));
#542=DIRECTION('',(0.0,0.0,1.0));
#543=DIRECTION('',(1.0,0.0,0.0));
#544=DIRECTION('',(0.0,0.0,1.0));
#545=DIRECTION('',(1.0,0.0,0.0));
#546=DIRECTION('',(0.0,0.0,1.0));
#547=DIRECTION('',(1.0,0.0,0.0));
#548=DIRECTION('',(0.0,0.0,1.0));
#549=DIRECTION('',(1.0,0.0,0.0));
#550=DIRECTION('',(0.0,0.0,-1.0));
#551=DIRECTION('',(-1.0,0.0,0.0));
#552=CARTESIAN_POINT('',(0.0,0.0,0.0));
#553=CARTESIAN_POINT('',(0.0,0.0,68.25));
#554=CARTESIAN_POINT('',(11.44954820082,0.0,68.25));
#555=CARTESIAN_POINT('',(0.0,0.0,68.25));
#556=CARTESIAN_POINT('',(0.0,0.0,67.4371027357096));
#557=CARTESIAN_POINT('',(12.3896029012821,0.0,67.4371027357096));
#558=CARTESIAN_POINT('',(0.0,0.0,67.3000000000001));
#559=CARTESIAN_POINT('',(0.0,0.0,0.489682333230157));
#560=CARTESIAN_POINT('',(22.1535820415749,0.0,0.489682333230157));
#561=CARTESIAN_POINT('',(0.0,0.0,67.4371027357096));
#562=CARTESIAN_POINT('',(0.0,0.0,-0.55000000000073));
#563=CARTESIAN_POINT('',(21.8750000000028,0.0,-0.55000000000073));
#564=CARTESIAN_POINT('',(0.0,0.0,0.489682333230157));
#565=CARTESIAN_POINT('',(0.0,0.0,-2.19999999999999));
#566=CARTESIAN_POINT('',(21.875,0.0,-2.19999999999999));
#567=CARTESIAN_POINT('',(0.0,0.0,-84.0));
#568=CARTESIAN_POINT('',(0.0,0.0,-3.20000000000001));
#569=CARTESIAN_POINT('',(22.875,0.0,-3.20000000000001));
#570=CARTESIAN_POINT('',(0.0,0.0,-2.2));
#571=CARTESIAN_POINT('',(0.0,0.0,-3.19999999999999));
#572=CARTESIAN_POINT('',(30.7625,0.0,-3.19999999999999));
#573=CARTESIAN_POINT('',(16.1750676196423,16.1750676196423,-3.2));
#574=CARTESIAN_POINT('',(0.0,0.0,-4.20000000000001));
#575=CARTESIAN_POINT('',(31.7625,0.0,-4.20000000000001));
#576=CARTESIAN_POINT('',(0.0,0.0,-4.20000000000001));
#577=CARTESIAN_POINT('',(0.0,0.0,-7.645946479578));
#578=CARTESIAN_POINT('',(31.7625,0.0,-7.645946479578));
#579=CARTESIAN_POINT('',(0.0,0.0,-84.0));
#580=CARTESIAN_POINT('',(0.0,0.0,-9.26249999999887));
#581=CARTESIAN_POINT('',(28.9625471694793,0.0,-9.26249999999887));
#582=CARTESIAN_POINT('',(0.0,0.0,-7.645946479578));
#583=CARTESIAN_POINT('',(0.0,0.0,-9.26249999999999));
#584=CARTESIAN_POINT('',(28.75,0.0,-9.26249999999999));
#585=CARTESIAN_POINT('',(20.4796135039746,20.4796135039746,-9.26249999999943));
#586=CARTESIAN_POINT('',(0.0,0.0,-10.0125));
#587=CARTESIAN_POINT('',(28.0,0.0,-10.0125));
#588=CARTESIAN_POINT('',(0.0,0.0,-10.0125));
#589=CARTESIAN_POINT('',(0.0,0.0,-12.3375));
#590=CARTESIAN_POINT('',(28.0,0.0,-12.3375));
#591=CARTESIAN_POINT('',(0.0,0.0,-84.0));
#592=CARTESIAN_POINT('',(0.0,0.0,-13.0875));
#593=CARTESIAN_POINT('',(28.75,0.0,-13.0875));
#594=CARTESIAN_POINT('',(0.0,0.0,-12.3375));
#595=CARTESIAN_POINT('',(0.0,0.0,-13.0875));
#596=CARTESIAN_POINT('',(28.9625471694791,0.0,-13.0875));
#597=CARTESIAN_POINT('',(20.3293199591132,20.3293199591132,-13.0875));
#598=CARTESIAN_POINT('',(0.0,0.0,-14.70405352042));
#599=CARTESIAN_POINT('',(31.7625000000009,0.0,-14.70405352042));
#600=CARTESIAN_POINT('',(0.0,0.0,-13.0875));
#601=CARTESIAN_POINT('',(0.0,0.0,-18.05));
#602=CARTESIAN_POINT('',(31.7625,0.0,-18.05));
#603=CARTESIAN_POINT('',(0.0,0.0,-84.0));
#604=CARTESIAN_POINT('',(0.0,0.0,-19.05));
#605=CARTESIAN_POINT('',(30.7625,0.0,-19.05));
#606=CARTESIAN_POINT('',(0.0,0.0,-18.05));
#607=CARTESIAN_POINT('',(0.0,0.0,-19.05));
#608=CARTESIAN_POINT('',(25.0,0.0,-19.05));
#609=CARTESIAN_POINT('',(21.7523723562512,21.7523723562512,-19.05));
#610=CARTESIAN_POINT('',(0.0,0.0,-20.05));
#611=CARTESIAN_POINT('',(24.0,0.0,-20.05));
#612=CARTESIAN_POINT('',(0.0,0.0,-20.05));
#613=CARTESIAN_POINT('',(0.0,0.0,-34.05));
#614=CARTESIAN_POINT('',(24.0,0.0,-34.05));
#615=CARTESIAN_POINT('',(0.0,0.0,-84.0));
#616=CARTESIAN_POINT('',(0.0,0.0,-35.05));
#617=CARTESIAN_POINT('',(25.0,0.0,-35.05));
#618=CARTESIAN_POINT('',(0.0,0.0,-34.05));
#619=CARTESIAN_POINT('',(0.0,0.0,-35.05));
#620=CARTESIAN_POINT('',(28.0,0.0,-35.05));
#621=CARTESIAN_POINT('',(17.6776695296637,17.6776695296637,-35.05));
#622=CARTESIAN_POINT('',(0.0,0.0,-36.05));
#623=CARTESIAN_POINT('',(29.0,0.0,-36.05));
#624=CARTESIAN_POINT('',(0.0,0.0,-36.05));
#625=CARTESIAN_POINT('',(0.0,0.0,-59.9));
#626=CARTESIAN_POINT('',(29.0,0.0,-59.9));
#627=CARTESIAN_POINT('',(0.0,0.0,-84.0));
#628=CARTESIAN_POINT('',(0.0,0.0,-59.9));
#629=CARTESIAN_POINT('',(18.5,0.0,-59.9));
#630=CARTESIAN_POINT('',(20.5060966544099,20.5060966544099,-59.9));
#631=CARTESIAN_POINT('',(0.0,0.0,-58.9));
#632=CARTESIAN_POINT('',(18.5,0.0,-58.9));
#633=CARTESIAN_POINT('',(0.0,0.0,-84.0));
#634=CARTESIAN_POINT('',(0.0,0.0,-58.9));
#635=CARTESIAN_POINT('',(16.0,0.0,-58.9));
#636=CARTESIAN_POINT('',(13.0814754519511,13.0814754519511,-58.9));
#637=CARTESIAN_POINT('',(0.0,0.0,-83.0));
#638=CARTESIAN_POINT('',(16.0,0.0,-83.0));
#639=CARTESIAN_POINT('',(0.0,0.0,-84.0));
#640=CARTESIAN_POINT('',(0.0,0.0,-84.0000000000001));
#641=CARTESIAN_POINT('',(15.0,0.0,-84.0000000000001));
#642=CARTESIAN_POINT('',(0.0,0.0,-83.0000000000001));
#643=CARTESIAN_POINT('',(4.94974746830583,4.94974746830583,-84.0));
#644=MECHANICAL_DESIGN_GEOMETRIC_PRESENTATION_REPRESENTATION('',(#24),#645);
#645=(GEOMETRIC_REPRESENTATION_CONTEXT(3)GLOBAL_UNCERTAINTY_ASSIGNED_CONTEXT((#646))
     GLOBAL_UNIT_ASSIGNED_CONTEXT((#652,#648,#647))REPRESENTATION_CONTEXT('A1B08-4032060',
     'TOP_LEVEL_ASSEMBLY_PART'));
#646=UNCERTAINTY_MEASURE_WITH_UNIT(LENGTH_MEASURE(2.0E-5),#652,'DISTANCE_ACCURACY_VALUE',
     'Maximum Tolerance applied to model');
#647=(NAMED_UNIT(*)SI_UNIT($,.STERADIAN.)SOLID_ANGLE_UNIT());
#648=(CONVERSION_BASED_UNIT('DEGREE',#650)NAMED_UNIT(*)PLANE_ANGLE_UNIT());
#649=DIMENSIONAL_EXPONENTS(0.0,0.0,0.0,0.0,0.0,0.0,0.0);
#650=PLANE_ANGLE_MEASURE_WITH_UNIT(PLANE_ANGLE_MEASURE(0.0174532925),#651);
#651=(NAMED_UNIT(*)PLANE_ANGLE_UNIT()SI_UNIT($,.RADIAN.));
#652=(LENGTH_UNIT()NAMED_UNIT(*)SI_UNIT(.MILLI.,.METRE.));
#653=CARTESIAN_POINT('',(0.0,0.0,0.0));
#654=DIRECTION('',(0.0,0.0,1.0));
#655=DIRECTION('',(1.0,0.0,0.0));
#656=AXIS2_PLACEMENT_3D('PCS',#653,#654,#655);
#657=CARTESIAN_POINT('',(0.0,0.0,0.0));
#658=DIRECTION('',(0.0,0.0,1.0));
#659=DIRECTION('',(1.0,0.0,0.0));
#660=AXIS2_PLACEMENT_3D('MCS',#657,#658,#659);
#661=CARTESIAN_POINT('',(0.0,0.0,-46.0));
#662=DIRECTION('',(0.0,0.0,1.0));
#663=DIRECTION('',(1.0,0.0,0.0));
#664=AXIS2_PLACEMENT_3D('CSW',#661,#662,#663);
#665=CONSTRUCTIVE_GEOMETRY_REPRESENTATION('supplemental geometry',(#656,#660,#664),
     #645);
#666=CONSTRUCTIVE_GEOMETRY_REPRESENTATION_RELATIONSHIP('supplemental geometry',$,
     #22,#665);
ENDSEC;
END-ISO-10303-21;
