ISO-10303-21;
HEADER;
/* Generated by software containing ST-Developer
 * from STEP Tools, Inc. (www.steptools.com) 
 */
/* OPTION: using custom schema-name function */

FILE_DESCRIPTION(
/* description */ (''),
/* implementation_level */ '2;1');

FILE_NAME(
/* name */ '2555_1_3d.stp',
/* time_stamp */ '2020-02-03T07:22:03+01:00',
/* author */ (''),
/* organization */ ('SMS'),
/* preprocessor_version */ 'ST-DEVELOPER v16.7',
/* originating_system */ 'SIEMENS PLM Software NX 12.0',
/* authorisation */ '');

FILE_SCHEMA (('AUTOMOTIVE_DESIGN { 1 0 10303 214 3 1 1 1 }'));
ENDSEC;

DATA;
#10=CONSTRUCTIVE_GEOMETRY_REPRESENTATION_RELATIONSHIP(
'supplemental geometry','',#24,#11);
#11=CONSTRUCTIVE_GEOMETRY_REPRESENTATION('supplemental geometry',(#351,
#352,#353),#648);
#12=SHAPE_REPRESENTATION_RELATIONSHIP('None',
'relationship between 2555_1_3D-None and 2555_1_3D-None',#24,#13);
#13=ADVANCED_BREP_SHAPE_REPRESENTATION('2555_1_3D-None',(#30),#648);
#14=SHAPE_DEFINITION_REPRESENTATION(#15,#24);
#15=PRODUCT_DEFINITION_SHAPE('','',#16);
#16=PRODUCT_DEFINITION(' ','',#18,#17);
#17=PRODUCT_DEFINITION_CONTEXT('part definition',#23,'design');
#18=PRODUCT_DEFINITION_FORMATION_WITH_SPECIFIED_SOURCE(' ',' ',#20,
 .NOT_KNOWN.);
#19=PRODUCT_RELATED_PRODUCT_CATEGORY('part','',(#20));
#20=PRODUCT('2555_1_3D','2555_1_3D',' ',(#21));
#21=PRODUCT_CONTEXT(' ',#23,'mechanical');
#22=APPLICATION_PROTOCOL_DEFINITION('international standard',
'automotive_design',2010,#23);
#23=APPLICATION_CONTEXT(
'core data for automotive mechanical design processes');
#24=SHAPE_REPRESENTATION('2555_1_3D-None',(#350),#648);
#25=SURFACE_STYLE_USAGE(.BOTH.,#26);
#26=SURFACE_SIDE_STYLE('',(#27));
#27=SURFACE_STYLE_FILL_AREA(#28);
#28=FILL_AREA_STYLE('',(#29));
#29=FILL_AREA_STYLE_COLOUR('',#346);
#30=MANIFOLD_SOLID_BREP('NOCUT',#31);
#31=CLOSED_SHELL('',(#75,#76,#77,#78,#79,#80,#81,#82,#83,#84,#85,#86,#87,
#88,#89,#90,#91,#92,#93,#94,#95,#96,#97));
#32=(
BOUNDED_SURFACE()
B_SPLINE_SURFACE(3,3,((#612,#613,#614,#615,#616,#617,#618),(#619,#620,#621,
#622,#623,#624,#625),(#626,#627,#628,#629,#630,#631,#632),(#633,#634,#635,
#636,#637,#638,#639)),.UNSPECIFIED.,.F.,.T.,.F.)
B_SPLINE_SURFACE_WITH_KNOTS((4,4),(1,3,3,3,1),(0.,1.),(-0.5,0.,0.5,1.,1.5),
 .UNSPECIFIED.)
GEOMETRIC_REPRESENTATION_ITEM()
RATIONAL_B_SPLINE_SURFACE(((1.,0.333333333333333,0.333333333333333,1.,0.333333333333333,
0.333333333333333,1.),(0.997463132061164,0.332487710687055,0.332487710687055,
0.997463132061164,0.332487710687055,0.332487710687055,0.997463132061164),
(0.997463132061164,0.332487710687055,0.332487710687055,0.997463132061164,
0.332487710687055,0.332487710687055,0.997463132061164),(1.,0.333333333333333,
0.333333333333333,1.,0.333333333333333,0.333333333333333,1.)))
REPRESENTATION_ITEM('')
SURFACE()
);
#33=TOROIDAL_SURFACE('',#398,26.,1.);
#34=TOROIDAL_SURFACE('',#399,22.,1.);
#35=TOROIDAL_SURFACE('',#400,27.5,1.);
#36=TOROIDAL_SURFACE('',#401,27.5,1.);
#37=TOROIDAL_SURFACE('',#404,18.0005855605816,1.2);
#38=PLANE('',#378);
#39=PLANE('',#379);
#40=PLANE('',#381);
#41=PLANE('',#397);
#42=PLANE('',#403);
#43=B_SPLINE_CURVE_WITH_KNOTS('',3,(#557,#558,#559,#560),.UNSPECIFIED.,
 .F.,.F.,(4,4),(0.,1.),.UNSPECIFIED.);
#44=B_SPLINE_CURVE_WITH_KNOTS('',3,(#565,#566,#567,#568),.UNSPECIFIED.,
 .F.,.F.,(4,4),(0.,1.),.UNSPECIFIED.);
#45=CONICAL_SURFACE('',#359,28.,1.43916666666667);
#46=CONICAL_SURFACE('',#362,12.,1.43916666666667);
#47=CONICAL_SURFACE('',#365,28.,1.43916666666667);
#48=CONICAL_SURFACE('',#368,12.,1.43916666666667);
#49=CONICAL_SURFACE('',#373,28.,1.43916666666667);
#50=CONICAL_SURFACE('',#376,12.,1.43916666666667);
#51=CONICAL_SURFACE('',#385,18.3021971951605,10.);
#52=CONICAL_SURFACE('',#391,21.,70.);
#53=FACE_OUTER_BOUND('',#130,.T.);
#54=FACE_OUTER_BOUND('',#131,.T.);
#55=FACE_OUTER_BOUND('',#132,.T.);
#56=FACE_OUTER_BOUND('',#133,.T.);
#57=FACE_OUTER_BOUND('',#134,.T.);
#58=FACE_OUTER_BOUND('',#135,.T.);
#59=FACE_OUTER_BOUND('',#136,.T.);
#60=FACE_OUTER_BOUND('',#139,.T.);
#61=FACE_OUTER_BOUND('',#140,.T.);
#62=FACE_OUTER_BOUND('',#161,.T.);
#63=LINE('',#533,#69);
#64=LINE('',#537,#70);
#65=LINE('',#543,#71);
#66=LINE('',#549,#72);
#67=LINE('',#555,#73);
#68=LINE('',#572,#74);
#69=VECTOR('',#421,1.);
#70=VECTOR('',#424,1.);
#71=VECTOR('',#431,1.);
#72=VECTOR('',#438,1.);
#73=VECTOR('',#445,1.);
#74=VECTOR('',#452,1.);
#75=ADVANCED_FACE('',(#102,#103),#98,.T.);
#76=ADVANCED_FACE('',(#53),#45,.T.);
#77=ADVANCED_FACE('',(#54),#46,.T.);
#78=ADVANCED_FACE('',(#55),#47,.T.);
#79=ADVANCED_FACE('',(#56),#48,.T.);
#80=ADVANCED_FACE('',(#57),#49,.T.);
#81=ADVANCED_FACE('',(#58),#50,.T.);
#82=ADVANCED_FACE('',(#59),#38,.F.);
#83=ADVANCED_FACE('',(#104,#105),#39,.T.);
#84=ADVANCED_FACE('',(#60),#40,.F.);
#85=ADVANCED_FACE('',(#61),#99,.F.);
#86=ADVANCED_FACE('AR_BY_CN_IB_SU_2',(#106,#107),#51,.T.);
#87=ADVANCED_FACE('AR_BY_CN_IB_SU_3',(#108,#109),#100,.T.);
#88=ADVANCED_FACE('AR_BY_CN_IB_SU_4',(#110,#111),#52,.T.);
#89=ADVANCED_FACE('AR_BY_CN_IB_SU_5',(#112,#113),#101,.T.);
#90=ADVANCED_FACE('AR_BY_CN_IB_SU_6',(#114,#115),#41,.F.);
#91=ADVANCED_FACE('AR_BY_CN_IB_SU_61',(#116,#117),#33,.F.);
#92=ADVANCED_FACE('AR_BY_CN_IB_SU_21',(#118,#119),#32,.T.);
#93=ADVANCED_FACE('AR_BY_CN_IB_SU_31',(#120,#121),#34,.F.);
#94=ADVANCED_FACE('AR_BY_CN_IB_SU_41',(#122,#123),#35,.T.);
#95=ADVANCED_FACE('AR_BY_CN_IB_SU_51',(#124,#125),#36,.T.);
#96=ADVANCED_FACE('AR_BY_CN_SU_1_1',(#62),#42,.F.);
#97=ADVANCED_FACE('AR_BY_CN_SU_11',(#126,#127),#37,.T.);
#98=CYLINDRICAL_SURFACE('',#356,25.);
#99=CYLINDRICAL_SURFACE('',#382,5.);
#100=CYLINDRICAL_SURFACE('',#388,21.);
#101=CYLINDRICAL_SURFACE('',#394,28.5);
#102=FACE_BOUND('',#128,.T.);
#103=FACE_BOUND('',#129,.T.);
#104=FACE_BOUND('',#137,.T.);
#105=FACE_BOUND('',#138,.T.);
#106=FACE_BOUND('',#141,.T.);
#107=FACE_BOUND('',#142,.T.);
#108=FACE_BOUND('',#143,.T.);
#109=FACE_BOUND('',#144,.T.);
#110=FACE_BOUND('',#145,.T.);
#111=FACE_BOUND('',#146,.T.);
#112=FACE_BOUND('',#147,.T.);
#113=FACE_BOUND('',#148,.T.);
#114=FACE_BOUND('',#149,.T.);
#115=FACE_BOUND('',#150,.T.);
#116=FACE_BOUND('',#151,.T.);
#117=FACE_BOUND('',#152,.T.);
#118=FACE_BOUND('',#153,.T.);
#119=FACE_BOUND('',#154,.T.);
#120=FACE_BOUND('',#155,.T.);
#121=FACE_BOUND('',#156,.T.);
#122=FACE_BOUND('',#157,.T.);
#123=FACE_BOUND('',#158,.T.);
#124=FACE_BOUND('',#159,.T.);
#125=FACE_BOUND('',#160,.T.);
#126=FACE_BOUND('',#162,.T.);
#127=FACE_BOUND('',#163,.T.);
#128=EDGE_LOOP('',(#164));
#129=EDGE_LOOP('',(#165));
#130=EDGE_LOOP('',(#166,#167,#168,#169));
#131=EDGE_LOOP('',(#170,#171,#172,#173));
#132=EDGE_LOOP('',(#174,#175,#176,#177));
#133=EDGE_LOOP('',(#178,#179,#180,#181));
#134=EDGE_LOOP('',(#182,#183,#184,#185,#186,#187,#188,#189));
#135=EDGE_LOOP('',(#190,#191,#192,#193));
#136=EDGE_LOOP('',(#194,#195,#196,#197,#198,#199,#200,#201));
#137=EDGE_LOOP('',(#202,#203,#204,#205,#206,#207));
#138=EDGE_LOOP('',(#208));
#139=EDGE_LOOP('',(#209,#210));
#140=EDGE_LOOP('',(#211,#212,#213,#214));
#141=EDGE_LOOP('',(#215));
#142=EDGE_LOOP('',(#216));
#143=EDGE_LOOP('',(#217));
#144=EDGE_LOOP('',(#218));
#145=EDGE_LOOP('',(#219));
#146=EDGE_LOOP('',(#220));
#147=EDGE_LOOP('',(#221));
#148=EDGE_LOOP('',(#222));
#149=EDGE_LOOP('',(#223));
#150=EDGE_LOOP('',(#224));
#151=EDGE_LOOP('',(#225));
#152=EDGE_LOOP('',(#226));
#153=EDGE_LOOP('',(#227));
#154=EDGE_LOOP('',(#228));
#155=EDGE_LOOP('',(#229));
#156=EDGE_LOOP('',(#230));
#157=EDGE_LOOP('',(#231));
#158=EDGE_LOOP('',(#232));
#159=EDGE_LOOP('',(#233));
#160=EDGE_LOOP('',(#234));
#161=EDGE_LOOP('',(#235));
#162=EDGE_LOOP('',(#236));
#163=EDGE_LOOP('',(#237));
#164=ORIENTED_EDGE('',*,*,#267,.T.);
#165=ORIENTED_EDGE('',*,*,#268,.T.);
#166=ORIENTED_EDGE('',*,*,#269,.F.);
#167=ORIENTED_EDGE('',*,*,#270,.F.);
#168=ORIENTED_EDGE('',*,*,#271,.T.);
#169=ORIENTED_EDGE('',*,*,#272,.T.);
#170=ORIENTED_EDGE('',*,*,#273,.F.);
#171=ORIENTED_EDGE('',*,*,#272,.F.);
#172=ORIENTED_EDGE('',*,*,#274,.T.);
#173=ORIENTED_EDGE('',*,*,#275,.T.);
#174=ORIENTED_EDGE('',*,*,#276,.F.);
#175=ORIENTED_EDGE('',*,*,#275,.F.);
#176=ORIENTED_EDGE('',*,*,#277,.T.);
#177=ORIENTED_EDGE('',*,*,#278,.T.);
#178=ORIENTED_EDGE('',*,*,#279,.F.);
#179=ORIENTED_EDGE('',*,*,#278,.F.);
#180=ORIENTED_EDGE('',*,*,#280,.T.);
#181=ORIENTED_EDGE('',*,*,#281,.T.);
#182=ORIENTED_EDGE('',*,*,#282,.F.);
#183=ORIENTED_EDGE('',*,*,#283,.F.);
#184=ORIENTED_EDGE('',*,*,#284,.F.);
#185=ORIENTED_EDGE('',*,*,#285,.T.);
#186=ORIENTED_EDGE('',*,*,#286,.T.);
#187=ORIENTED_EDGE('',*,*,#287,.F.);
#188=ORIENTED_EDGE('',*,*,#281,.F.);
#189=ORIENTED_EDGE('',*,*,#288,.T.);
#190=ORIENTED_EDGE('',*,*,#289,.F.);
#191=ORIENTED_EDGE('',*,*,#286,.F.);
#192=ORIENTED_EDGE('',*,*,#290,.T.);
#193=ORIENTED_EDGE('',*,*,#270,.T.);
#194=ORIENTED_EDGE('',*,*,#285,.F.);
#195=ORIENTED_EDGE('',*,*,#291,.T.);
#196=ORIENTED_EDGE('',*,*,#288,.F.);
#197=ORIENTED_EDGE('',*,*,#280,.F.);
#198=ORIENTED_EDGE('',*,*,#277,.F.);
#199=ORIENTED_EDGE('',*,*,#274,.F.);
#200=ORIENTED_EDGE('',*,*,#271,.F.);
#201=ORIENTED_EDGE('',*,*,#290,.F.);
#202=ORIENTED_EDGE('',*,*,#289,.T.);
#203=ORIENTED_EDGE('',*,*,#269,.T.);
#204=ORIENTED_EDGE('',*,*,#273,.T.);
#205=ORIENTED_EDGE('',*,*,#276,.T.);
#206=ORIENTED_EDGE('',*,*,#279,.T.);
#207=ORIENTED_EDGE('',*,*,#287,.T.);
#208=ORIENTED_EDGE('',*,*,#267,.F.);
#209=ORIENTED_EDGE('',*,*,#283,.T.);
#210=ORIENTED_EDGE('',*,*,#292,.F.);
#211=ORIENTED_EDGE('',*,*,#282,.T.);
#212=ORIENTED_EDGE('',*,*,#291,.F.);
#213=ORIENTED_EDGE('',*,*,#284,.T.);
#214=ORIENTED_EDGE('',*,*,#292,.T.);
#215=ORIENTED_EDGE('',*,*,#293,.T.);
#216=ORIENTED_EDGE('',*,*,#294,.T.);
#217=ORIENTED_EDGE('',*,*,#295,.T.);
#218=ORIENTED_EDGE('',*,*,#296,.T.);
#219=ORIENTED_EDGE('',*,*,#297,.T.);
#220=ORIENTED_EDGE('',*,*,#298,.T.);
#221=ORIENTED_EDGE('',*,*,#299,.T.);
#222=ORIENTED_EDGE('',*,*,#300,.T.);
#223=ORIENTED_EDGE('',*,*,#301,.T.);
#224=ORIENTED_EDGE('',*,*,#302,.T.);
#225=ORIENTED_EDGE('',*,*,#302,.F.);
#226=ORIENTED_EDGE('',*,*,#268,.F.);
#227=ORIENTED_EDGE('',*,*,#294,.F.);
#228=ORIENTED_EDGE('',*,*,#296,.F.);
#229=ORIENTED_EDGE('',*,*,#295,.F.);
#230=ORIENTED_EDGE('',*,*,#298,.F.);
#231=ORIENTED_EDGE('',*,*,#297,.F.);
#232=ORIENTED_EDGE('',*,*,#300,.F.);
#233=ORIENTED_EDGE('',*,*,#299,.F.);
#234=ORIENTED_EDGE('',*,*,#301,.F.);
#235=ORIENTED_EDGE('',*,*,#303,.F.);
#236=ORIENTED_EDGE('',*,*,#293,.F.);
#237=ORIENTED_EDGE('',*,*,#303,.T.);
#238=VERTEX_POINT('',#526);
#239=VERTEX_POINT('',#528);
#240=VERTEX_POINT('',#531);
#241=VERTEX_POINT('',#532);
#242=VERTEX_POINT('',#534);
#243=VERTEX_POINT('',#536);
#244=VERTEX_POINT('',#540);
#245=VERTEX_POINT('',#542);
#246=VERTEX_POINT('',#546);
#247=VERTEX_POINT('',#548);
#248=VERTEX_POINT('',#552);
#249=VERTEX_POINT('',#554);
#250=VERTEX_POINT('',#561);
#251=VERTEX_POINT('',#562);
#252=VERTEX_POINT('',#564);
#253=VERTEX_POINT('',#569);
#254=VERTEX_POINT('',#571);
#255=VERTEX_POINT('',#573);
#256=VERTEX_POINT('',#587);
#257=VERTEX_POINT('',#589);
#258=VERTEX_POINT('',#592);
#259=VERTEX_POINT('',#594);
#260=VERTEX_POINT('',#597);
#261=VERTEX_POINT('',#599);
#262=VERTEX_POINT('',#602);
#263=VERTEX_POINT('',#604);
#264=VERTEX_POINT('',#607);
#265=VERTEX_POINT('',#609);
#266=VERTEX_POINT('',#644);
#267=EDGE_CURVE('',#238,#238,#304,.T.);
#268=EDGE_CURVE('',#239,#239,#305,.T.);
#269=EDGE_CURVE('',#240,#241,#306,.T.);
#270=EDGE_CURVE('',#242,#240,#63,.T.);
#271=EDGE_CURVE('',#242,#243,#307,.T.);
#272=EDGE_CURVE('',#243,#241,#64,.T.);
#273=EDGE_CURVE('',#241,#244,#308,.T.);
#274=EDGE_CURVE('',#243,#245,#309,.T.);
#275=EDGE_CURVE('',#245,#244,#65,.T.);
#276=EDGE_CURVE('',#244,#246,#310,.T.);
#277=EDGE_CURVE('',#245,#247,#311,.T.);
#278=EDGE_CURVE('',#247,#246,#66,.T.);
#279=EDGE_CURVE('',#246,#248,#312,.T.);
#280=EDGE_CURVE('',#247,#249,#313,.T.);
#281=EDGE_CURVE('',#249,#248,#67,.T.);
#282=EDGE_CURVE('',#250,#251,#43,.T.);
#283=EDGE_CURVE('',#252,#250,#314,.T.);
#284=EDGE_CURVE('',#253,#252,#44,.T.);
#285=EDGE_CURVE('',#253,#254,#315,.T.);
#286=EDGE_CURVE('',#254,#255,#68,.T.);
#287=EDGE_CURVE('',#248,#255,#316,.T.);
#288=EDGE_CURVE('',#249,#251,#317,.T.);
#289=EDGE_CURVE('',#255,#240,#318,.T.);
#290=EDGE_CURVE('',#254,#242,#319,.T.);
#291=EDGE_CURVE('',#253,#251,#320,.T.);
#292=EDGE_CURVE('',#252,#250,#321,.T.);
#293=EDGE_CURVE('',#256,#256,#322,.T.);
#294=EDGE_CURVE('',#257,#257,#323,.T.);
#295=EDGE_CURVE('',#258,#258,#324,.T.);
#296=EDGE_CURVE('',#259,#259,#325,.T.);
#297=EDGE_CURVE('',#260,#260,#326,.T.);
#298=EDGE_CURVE('',#261,#261,#327,.T.);
#299=EDGE_CURVE('',#262,#262,#328,.T.);
#300=EDGE_CURVE('',#263,#263,#329,.T.);
#301=EDGE_CURVE('',#264,#264,#330,.T.);
#302=EDGE_CURVE('',#265,#265,#331,.T.);
#303=EDGE_CURVE('',#266,#266,#332,.T.);
#304=CIRCLE('',#354,25.);
#305=CIRCLE('',#355,25.);
#306=CIRCLE('',#357,28.);
#307=CIRCLE('',#358,27.2462955787619);
#308=CIRCLE('',#360,12.);
#309=CIRCLE('',#361,11.2462955787618);
#310=CIRCLE('',#363,28.);
#311=CIRCLE('',#364,27.2462955787619);
#312=CIRCLE('',#366,12.);
#313=CIRCLE('',#367,11.2462955787618);
#314=CIRCLE('',#369,27.3857308966909);
#315=CIRCLE('',#370,27.2462955787619);
#316=CIRCLE('',#371,28.);
#317=CIRCLE('',#372,27.2462955787619);
#318=CIRCLE('',#374,12.);
#319=CIRCLE('',#375,11.2462955787618);
#320=CIRCLE('',#377,5.);
#321=CIRCLE('',#380,5.);
#322=CIRCLE('',#383,19.1823548641963);
#323=CIRCLE('',#384,20.6961550602442);
#324=CIRCLE('',#386,21.);
#325=CIRCLE('',#387,21.);
#326=CIRCLE('',#389,27.8420201433257);
#327=CIRCLE('',#390,21.6579798566743);
#328=CIRCLE('',#392,28.5);
#329=CIRCLE('',#393,28.5);
#330=CIRCLE('',#395,27.5);
#331=CIRCLE('',#396,26.);
#332=CIRCLE('',#402,18.0005855605816);
#333=PRESENTATION_LAYER_ASSIGNMENT('1','Layer 1',(#351,#352,#353,#30));
#334=STYLED_ITEM('',(#338),#351);
#335=STYLED_ITEM('',(#339),#352);
#336=STYLED_ITEM('',(#340),#353);
#337=STYLED_ITEM('',(#341),#30);
#338=PRESENTATION_STYLE_ASSIGNMENT((#342));
#339=PRESENTATION_STYLE_ASSIGNMENT((#343));
#340=PRESENTATION_STYLE_ASSIGNMENT((#344));
#341=PRESENTATION_STYLE_ASSIGNMENT((#25));
#342=CURVE_STYLE('',#347,POSITIVE_LENGTH_MEASURE(0.13),#345);
#343=CURVE_STYLE('',#348,POSITIVE_LENGTH_MEASURE(0.13),#345);
#344=CURVE_STYLE('',#349,POSITIVE_LENGTH_MEASURE(0.13),#345);
#345=COLOUR_RGB('Strong Emerald',0.,0.803921568627451,0.525490196078431);
#346=COLOUR_RGB('TLS_NOCUT',0.499992370489052,0.499992370489052,0.499992370489052);
#347=DRAUGHTING_PRE_DEFINED_CURVE_FONT('continuous');
#348=DRAUGHTING_PRE_DEFINED_CURVE_FONT('continuous');
#349=DRAUGHTING_PRE_DEFINED_CURVE_FONT('continuous');
#350=AXIS2_PLACEMENT_3D('',#521,#405,#406);
#351=AXIS2_PLACEMENT_3D('PCS',#522,#407,#408);
#352=AXIS2_PLACEMENT_3D('MCS',#523,#409,#410);
#353=AXIS2_PLACEMENT_3D('CSW',#524,#411,#412);
#354=AXIS2_PLACEMENT_3D('',#525,#413,#414);
#355=AXIS2_PLACEMENT_3D('',#527,#415,#416);
#356=AXIS2_PLACEMENT_3D('',#529,#417,#418);
#357=AXIS2_PLACEMENT_3D('',#530,#419,#420);
#358=AXIS2_PLACEMENT_3D('',#535,#422,#423);
#359=AXIS2_PLACEMENT_3D('',#538,#425,#426);
#360=AXIS2_PLACEMENT_3D('',#539,#427,#428);
#361=AXIS2_PLACEMENT_3D('',#541,#429,#430);
#362=AXIS2_PLACEMENT_3D('',#544,#432,#433);
#363=AXIS2_PLACEMENT_3D('',#545,#434,#435);
#364=AXIS2_PLACEMENT_3D('',#547,#436,#437);
#365=AXIS2_PLACEMENT_3D('',#550,#439,#440);
#366=AXIS2_PLACEMENT_3D('',#551,#441,#442);
#367=AXIS2_PLACEMENT_3D('',#553,#443,#444);
#368=AXIS2_PLACEMENT_3D('',#556,#446,#447);
#369=AXIS2_PLACEMENT_3D('',#563,#448,#449);
#370=AXIS2_PLACEMENT_3D('',#570,#450,#451);
#371=AXIS2_PLACEMENT_3D('',#574,#453,#454);
#372=AXIS2_PLACEMENT_3D('',#575,#455,#456);
#373=AXIS2_PLACEMENT_3D('',#576,#457,#458);
#374=AXIS2_PLACEMENT_3D('',#577,#459,#460);
#375=AXIS2_PLACEMENT_3D('',#578,#461,#462);
#376=AXIS2_PLACEMENT_3D('',#579,#463,#464);
#377=AXIS2_PLACEMENT_3D('',#580,#465,#466);
#378=AXIS2_PLACEMENT_3D('',#581,#467,#468);
#379=AXIS2_PLACEMENT_3D('',#582,#469,#470);
#380=AXIS2_PLACEMENT_3D('',#583,#471,#472);
#381=AXIS2_PLACEMENT_3D('',#584,#473,#474);
#382=AXIS2_PLACEMENT_3D('',#585,#475,#476);
#383=AXIS2_PLACEMENT_3D('',#586,#477,#478);
#384=AXIS2_PLACEMENT_3D('',#588,#479,#480);
#385=AXIS2_PLACEMENT_3D('',#590,#481,#482);
#386=AXIS2_PLACEMENT_3D('',#591,#483,#484);
#387=AXIS2_PLACEMENT_3D('',#593,#485,#486);
#388=AXIS2_PLACEMENT_3D('',#595,#487,#488);
#389=AXIS2_PLACEMENT_3D('',#596,#489,#490);
#390=AXIS2_PLACEMENT_3D('',#598,#491,#492);
#391=AXIS2_PLACEMENT_3D('',#600,#493,#494);
#392=AXIS2_PLACEMENT_3D('',#601,#495,#496);
#393=AXIS2_PLACEMENT_3D('',#603,#497,#498);
#394=AXIS2_PLACEMENT_3D('',#605,#499,#500);
#395=AXIS2_PLACEMENT_3D('',#606,#501,#502);
#396=AXIS2_PLACEMENT_3D('',#608,#503,#504);
#397=AXIS2_PLACEMENT_3D('',#610,#505,#506);
#398=AXIS2_PLACEMENT_3D('',#611,#507,#508);
#399=AXIS2_PLACEMENT_3D('',#640,#509,#510);
#400=AXIS2_PLACEMENT_3D('',#641,#511,#512);
#401=AXIS2_PLACEMENT_3D('',#642,#513,#514);
#402=AXIS2_PLACEMENT_3D('',#643,#515,#516);
#403=AXIS2_PLACEMENT_3D('',#645,#517,#518);
#404=AXIS2_PLACEMENT_3D('',#646,#519,#520);
#405=DIRECTION('',(0.,0.,1.));
#406=DIRECTION('',(1.,0.,0.));
#407=DIRECTION('',(0.,0.,1.));
#408=DIRECTION('',(1.,0.,0.));
#409=DIRECTION('',(0.,0.,1.));
#410=DIRECTION('',(1.,0.,0.));
#411=DIRECTION('',(0.,0.,1.));
#412=DIRECTION('',(1.,0.,0.));
#413=DIRECTION('',(0.,0.,-1.));
#414=DIRECTION('',(-1.,0.,0.));
#415=DIRECTION('',(0.,0.,1.));
#416=DIRECTION('',(-1.,0.,0.));
#417=DIRECTION('',(0.,0.,-1.));
#418=DIRECTION('',(-1.,0.,0.));
#419=DIRECTION('',(0.,0.,-1.));
#420=DIRECTION('',(-1.,0.,0.));
#421=DIRECTION('',(-0.0248035201341083,0.00394671043216829,-0.999684554679986));
#422=DIRECTION('',(0.,0.,-1.));
#423=DIRECTION('',(-1.,0.,0.));
#424=DIRECTION('',(-0.0157864666720801,0.0195340370709642,-0.999684554679986));
#425=DIRECTION('',(0.,0.,-1.));
#426=DIRECTION('',(-1.,0.,0.));
#427=DIRECTION('',(0.,0.,-1.));
#428=DIRECTION('',(-1.,0.,0.));
#429=DIRECTION('',(0.,0.,-1.));
#430=DIRECTION('',(-1.,0.,0.));
#431=DIRECTION('',(0.0158141500870706,0.0195116322049721,-0.999684554679986));
#432=DIRECTION('',(0.,0.,-1.));
#433=DIRECTION('',(-1.,0.,0.));
#434=DIRECTION('',(0.,0.,-1.));
#435=DIRECTION('',(-1.,0.,0.));
#436=DIRECTION('',(0.,0.,-1.));
#437=DIRECTION('',(-1.,0.,0.));
#438=DIRECTION('',(0.0248046442023397,0.00393963961217701,-0.999684554679986));
#439=DIRECTION('',(0.,0.,-1.));
#440=DIRECTION('',(-1.,0.,0.));
#441=DIRECTION('',(0.,0.,-1.));
#442=DIRECTION('',(-1.,0.,0.));
#443=DIRECTION('',(0.,0.,-1.));
#444=DIRECTION('',(-1.,0.,0.));
#445=DIRECTION('',(0.00902373900588192,-0.0234384997094998,-0.999684554679986));
#446=DIRECTION('',(0.,0.,-1.));
#447=DIRECTION('',(-1.,0.,0.));
#448=DIRECTION('',(0.,0.,1.));
#449=DIRECTION('',(-1.,0.,0.));
#450=DIRECTION('',(0.,0.,-1.));
#451=DIRECTION('',(-1.,0.,0.));
#452=DIRECTION('',(-0.00898380857141531,-0.0234538337555006,-0.999684554679986));
#453=DIRECTION('',(0.,0.,-1.));
#454=DIRECTION('',(-1.,0.,0.));
#455=DIRECTION('',(0.,0.,-1.));
#456=DIRECTION('',(-1.,0.,0.));
#457=DIRECTION('',(0.,0.,-1.));
#458=DIRECTION('',(-1.,0.,0.));
#459=DIRECTION('',(0.,0.,-1.));
#460=DIRECTION('',(-1.,0.,0.));
#461=DIRECTION('',(0.,0.,-1.));
#462=DIRECTION('',(-1.,0.,0.));
#463=DIRECTION('',(0.,0.,-1.));
#464=DIRECTION('',(-1.,0.,0.));
#465=DIRECTION('',(0.,0.,-1.));
#466=DIRECTION('',(-1.,0.,0.));
#467=DIRECTION('',(0.,0.,-1.));
#468=DIRECTION('',(-1.,0.,0.));
#469=DIRECTION('',(0.,0.,1.));
#470=DIRECTION('',(1.,0.,0.));
#471=DIRECTION('',(0.,0.,-1.));
#472=DIRECTION('',(-1.,0.,0.));
#473=DIRECTION('',(0.,0.,-1.));
#474=DIRECTION('',(-1.,0.,0.));
#475=DIRECTION('',(0.,0.,-1.));
#476=DIRECTION('',(-1.,0.,0.));
#477=DIRECTION('',(0.,0.,1.));
#478=DIRECTION('',(1.,0.,0.));
#479=DIRECTION('',(0.,0.,-1.));
#480=DIRECTION('',(-1.,0.,0.));
#481=DIRECTION('',(0.,0.,1.));
#482=DIRECTION('',(1.,0.,-2.13911212449651E-16));
#483=DIRECTION('',(0.,0.,-1.));
#484=DIRECTION('',(1.,0.,0.));
#485=DIRECTION('',(0.,0.,1.));
#486=DIRECTION('',(-1.,0.,0.));
#487=DIRECTION('',(0.,0.,1.));
#488=DIRECTION('',(1.,0.,0.));
#489=DIRECTION('',(0.,0.,-1.));
#490=DIRECTION('',(-1.,0.,0.));
#491=DIRECTION('',(0.,0.,1.));
#492=DIRECTION('',(1.,0.,0.));
#493=DIRECTION('',(0.,0.,1.));
#494=DIRECTION('',(1.,0.,0.));
#495=DIRECTION('',(0.,0.,-1.));
#496=DIRECTION('',(-1.,0.,0.));
#497=DIRECTION('',(0.,0.,1.));
#498=DIRECTION('',(-1.,0.,0.));
#499=DIRECTION('',(0.,0.,1.));
#500=DIRECTION('',(1.,0.,0.));
#501=DIRECTION('',(0.,0.,1.));
#502=DIRECTION('',(-1.,0.,0.));
#503=DIRECTION('',(0.,0.,-1.));
#504=DIRECTION('',(-1.,0.,0.));
#505=DIRECTION('',(0.,0.,-1.));
#506=DIRECTION('',(-1.,0.,0.));
#507=DIRECTION('',(0.,0.,-1.));
#508=DIRECTION('',(-1.,0.,0.));
#509=DIRECTION('',(0.,0.,1.));
#510=DIRECTION('',(1.,0.,0.));
#511=DIRECTION('',(0.,0.,-1.));
#512=DIRECTION('',(-1.,0.,0.));
#513=DIRECTION('',(0.,0.,-1.));
#514=DIRECTION('',(-1.,0.,0.));
#515=DIRECTION('',(0.,0.,1.));
#516=DIRECTION('',(1.,0.,0.));
#517=DIRECTION('',(0.,0.,1.));
#518=DIRECTION('',(1.,0.,0.));
#519=DIRECTION('',(0.,0.,1.));
#520=DIRECTION('',(1.,0.,0.));
#521=CARTESIAN_POINT('',(0.,0.,0.));
#522=CARTESIAN_POINT('',(0.,0.,0.));
#523=CARTESIAN_POINT('',(0.,0.,0.));
#524=CARTESIAN_POINT('',(0.,0.,-46.));
#525=CARTESIAN_POINT('',(0.,0.,0.));
#526=CARTESIAN_POINT('',(-25.,0.,0.));
#527=CARTESIAN_POINT('',(0.,0.,-5.));
#528=CARTESIAN_POINT('',(-25.,0.,-5.));
#529=CARTESIAN_POINT('',(0.,0.,0.));
#530=CARTESIAN_POINT('',(10.0681279375701,-5.82427314056864,0.));
#531=CARTESIAN_POINT('',(-17.5840002560203,-1.42429514457352,0.));
#532=CARTESIAN_POINT('',(-7.53136591572022,15.9531880546211,0.));
#533=CARTESIAN_POINT('',(-17.5840002560203,-1.42429514457352,-1.74219201836178E-16));
#534=CARTESIAN_POINT('',(-16.8396598533005,-1.54273381846395,30.));
#535=CARTESIAN_POINT('',(10.0681279375701,-5.82427314056864,30.));
#536=CARTESIAN_POINT('',(-7.05762247540669,15.366982026544,30.));
#537=CARTESIAN_POINT('',(-7.53136591572022,15.9531880546211,0.));
#538=CARTESIAN_POINT('',(10.0681279375701,-5.82427314056864,0.));
#539=CARTESIAN_POINT('',(0.0112743071184957,6.61999039953979,0.));
#540=CARTESIAN_POINT('',(7.56714143143875,15.9424831991946,0.));
#541=CARTESIAN_POINT('',(0.0112743071184957,6.61999039953979,30.));
#542=CARTESIAN_POINT('',(7.09256722661472,15.3569495291895,30.));
#543=CARTESIAN_POINT('',(7.56714143143875,15.9424831991946,4.35548004590446E-17));
#544=CARTESIAN_POINT('',(0.0112743071184957,6.61999039953979,0.));
#545=CARTESIAN_POINT('',(-10.0632151919752,-5.81,0.));
#546=CARTESIAN_POINT('',(17.5901661656285,-1.41790488594162,0.));
#547=CARTESIAN_POINT('',(-10.0632151919752,-5.81,30.));
#548=CARTESIAN_POINT('',(16.845792030221,-1.53613136829749,30.));
#549=CARTESIAN_POINT('',(17.5901661656285,-1.41790488594162,0.));
#550=CARTESIAN_POINT('',(-10.0632151919752,-5.81,0.));
#551=CARTESIAN_POINT('',(5.7387170123698,-3.30023136339521,0.));
#552=CARTESIAN_POINT('',(10.0501831687922,-14.4989482355205,0.));
#553=CARTESIAN_POINT('',(5.7387170123698,-3.30023136339521,30.));
#554=CARTESIAN_POINT('',(9.77938557678269,-13.7955713672942,30.));
#555=CARTESIAN_POINT('',(10.0501831687922,-14.4989482355205,0.));
#556=CARTESIAN_POINT('',(5.7387170123698,-3.30023136339521,0.));
#557=CARTESIAN_POINT('',(3.58734998592506,-15.5170529607122,24.45));
#558=CARTESIAN_POINT('',(3.54701774381426,-15.4755117410105,26.3000273089909));
#559=CARTESIAN_POINT('',(3.50538973197555,-15.4340772977189,28.1500293204981));
#560=CARTESIAN_POINT('',(3.46233244950734,-15.3927497994888,30.));
#561=CARTESIAN_POINT('',(3.58734998592506,-15.5170529607122,24.45));
#562=CARTESIAN_POINT('',(3.46233244950734,-15.3927497994888,30.));
#563=CARTESIAN_POINT('',(-0.00990452952675801,11.6313911327719,24.45));
#564=CARTESIAN_POINT('',(-3.58960162766305,-15.5193735973709,24.45));
#565=CARTESIAN_POINT('',(-3.46466450317153,-15.3949896143751,30.));
#566=CARTESIAN_POINT('',(-3.50769505049887,-15.4363449487375,28.1500293204981));
#567=CARTESIAN_POINT('',(-3.54929625833513,-15.4778063038418,26.3000273089909));
#568=CARTESIAN_POINT('',(-3.58960162766305,-15.5193735973709,24.45));
#569=CARTESIAN_POINT('',(-3.46466450317153,-15.3949896143751,30.));
#570=CARTESIAN_POINT('',(-0.00990452952675801,11.6313911327719,30.));
#571=CARTESIAN_POINT('',(-9.75587660471742,-13.8122063148152,30.));
#572=CARTESIAN_POINT('',(-10.0254759056977,-14.5160433495789,0.));
#573=CARTESIAN_POINT('',(-10.0254759056977,-14.5160433495789,0.));
#574=CARTESIAN_POINT('',(-0.00990452952675801,11.6313911327719,0.));
#575=CARTESIAN_POINT('',(-0.00990452952675801,11.6313911327719,30.));
#576=CARTESIAN_POINT('',(-0.00990452952675801,11.6313911327719,0.));
#577=CARTESIAN_POINT('',(-5.73308817305298,-3.31,0.));
#578=CARTESIAN_POINT('',(-5.73308817305298,-3.31,30.));
#579=CARTESIAN_POINT('',(-5.73308817305298,-3.31,0.));
#580=CARTESIAN_POINT('',(0.,-19.,30.));
#581=CARTESIAN_POINT('',(5.03970112234431,0.397858629485572,30.));
#582=CARTESIAN_POINT('',(0.,0.,0.));
#583=CARTESIAN_POINT('',(0.,-19.,24.45));
#584=CARTESIAN_POINT('',(0.,-19.,24.45));
#585=CARTESIAN_POINT('',(0.,-19.,30.));
#586=CARTESIAN_POINT('',(0.,0.,-45.0083778132003));
#587=CARTESIAN_POINT('',(19.1823548641963,0.,-45.0083778132003));
#588=CARTESIAN_POINT('',(0.,0.,-36.4231902828201));
#589=CARTESIAN_POINT('',(-20.6961550602442,0.,-36.4231902828201));
#590=CARTESIAN_POINT('',(0.,0.,-50.));
#591=CARTESIAN_POINT('',(0.,0.,-23.9002075382097));
#592=CARTESIAN_POINT('',(21.,0.,-23.9002075382097));
#593=CARTESIAN_POINT('',(0.,0.,-32.9502267294815));
#594=CARTESIAN_POINT('',(-21.,0.,-32.9502267294815));
#595=CARTESIAN_POINT('',(0.,0.,17.5765408163265));
#596=CARTESIAN_POINT('',(0.,0.,-20.7097083255797));
#597=CARTESIAN_POINT('',(-27.8420201433257,0.,-20.7097083255797));
#598=CARTESIAN_POINT('',(0.,0.,-22.9605149174238));
#599=CARTESIAN_POINT('',(21.6579798566743,0.,-22.9605149174238));
#600=CARTESIAN_POINT('',(0.,0.,-23.2));
#601=CARTESIAN_POINT('',(0.,0.,-7.));
#602=CARTESIAN_POINT('',(-28.5,0.,-7.));
#603=CARTESIAN_POINT('',(0.,0.,-19.7700157047938));
#604=CARTESIAN_POINT('',(-28.5,0.,-19.7700157047938));
#605=CARTESIAN_POINT('',(0.,0.,17.5765408163265));
#606=CARTESIAN_POINT('',(0.,0.,-6.));
#607=CARTESIAN_POINT('',(-27.5,0.,-6.));
#608=CARTESIAN_POINT('',(0.,0.,-6.));
#609=CARTESIAN_POINT('',(-26.,0.,-6.));
#610=CARTESIAN_POINT('',(-28.5,0.,-6.));
#611=CARTESIAN_POINT('',(0.,0.,-5.));
#612=CARTESIAN_POINT('',(-20.6961550602442,0.,-36.4231902828201));
#613=CARTESIAN_POINT('',(-20.6961550602442,41.3923101204883,-36.4231902828201));
#614=CARTESIAN_POINT('',(20.6961550602442,41.3923101204883,-36.4231902828201));
#615=CARTESIAN_POINT('',(20.6961550602442,0.,-36.4231902828201));
#616=CARTESIAN_POINT('',(20.6961550602442,-41.3923101204883,-36.4231902828201));
#617=CARTESIAN_POINT('',(-20.6961550602442,-41.3923101204883,-36.4231902828201));
#618=CARTESIAN_POINT('',(-20.6961550602442,0.,-36.4231902828201));
#619=CARTESIAN_POINT('',(-20.8984607617767,0.,-35.2758576357134));
#620=CARTESIAN_POINT('',(-20.8984607617767,41.7969215235535,-35.2758576357134));
#621=CARTESIAN_POINT('',(20.8984607617767,41.7969215235535,-35.2758576357134));
#622=CARTESIAN_POINT('',(20.8984607617767,0.,-35.2758576357134));
#623=CARTESIAN_POINT('',(20.8984607617767,-41.7969215235535,-35.2758576357134));
#624=CARTESIAN_POINT('',(-20.8984607617767,-41.7969215235535,-35.2758576357134));
#625=CARTESIAN_POINT('',(-20.8984607617767,0.,-35.2758576357134));
#626=CARTESIAN_POINT('',(-21.,0.,-34.115258832039));
#627=CARTESIAN_POINT('',(-21.,42.,-34.115258832039));
#628=CARTESIAN_POINT('',(21.,42.,-34.115258832039));
#629=CARTESIAN_POINT('',(21.,0.,-34.115258832039));
#630=CARTESIAN_POINT('',(21.,-42.,-34.115258832039));
#631=CARTESIAN_POINT('',(-21.,-42.,-34.115258832039));
#632=CARTESIAN_POINT('',(-21.,0.,-34.115258832039));
#633=CARTESIAN_POINT('',(-21.,0.,-32.9502267294815));
#634=CARTESIAN_POINT('',(-21.,42.,-32.9502267294815));
#635=CARTESIAN_POINT('',(21.,42.,-32.9502267294815));
#636=CARTESIAN_POINT('',(21.,0.,-32.9502267294815));
#637=CARTESIAN_POINT('',(21.,-42.,-32.9502267294815));
#638=CARTESIAN_POINT('',(-21.,-42.,-32.9502267294815));
#639=CARTESIAN_POINT('',(-21.,0.,-32.9502267294815));
#640=CARTESIAN_POINT('',(0.,0.,-23.9002075382097));
#641=CARTESIAN_POINT('',(0.,0.,-19.7700157047938));
#642=CARTESIAN_POINT('',(0.,0.,-7.));
#643=CARTESIAN_POINT('',(0.,0.,-46.));
#644=CARTESIAN_POINT('',(18.0005855605816,0.,-46.));
#645=CARTESIAN_POINT('',(0.,0.,-46.));
#646=CARTESIAN_POINT('',(0.,0.,-44.8));
#647=MECHANICAL_DESIGN_GEOMETRIC_PRESENTATION_REPRESENTATION('',(#334,#335,
#336,#337),#648);
#648=(
GEOMETRIC_REPRESENTATION_CONTEXT(3)
GLOBAL_UNCERTAINTY_ASSIGNED_CONTEXT((#649))
GLOBAL_UNIT_ASSIGNED_CONTEXT((#655,#651,#650))
REPRESENTATION_CONTEXT('2555_1_3d','TOP_LEVEL_ASSEMBLY_PART')
);
#649=UNCERTAINTY_MEASURE_WITH_UNIT(LENGTH_MEASURE(0.0508),#655,
'DISTANCE_ACCURACY_VALUE','Maximum Tolerance applied to model');
#650=(
NAMED_UNIT(*)
SI_UNIT($,.STERADIAN.)
SOLID_ANGLE_UNIT()
);
#651=(
CONVERSION_BASED_UNIT('DEGREE',#653)
NAMED_UNIT(#652)
PLANE_ANGLE_UNIT()
);
#652=DIMENSIONAL_EXPONENTS(0.,0.,0.,0.,0.,0.,0.);
#653=PLANE_ANGLE_MEASURE_WITH_UNIT(PLANE_ANGLE_MEASURE(0.0174532925),#654);
#654=(
NAMED_UNIT(*)
PLANE_ANGLE_UNIT()
SI_UNIT($,.RADIAN.)
);
#655=(
LENGTH_UNIT()
NAMED_UNIT(*)
SI_UNIT(.MILLI.,.METRE.)
);
ENDSEC;
END-ISO-10303-21;
