ISO-10303-21;
HEADER;
/* Generated by software containing ST-Developer
 * from STEP Tools, Inc. (www.steptools.com) 
 */
/* OPTION: using custom schema-name function */

FILE_DESCRIPTION(
/* description */ ('3-D model version:1'),
/* implementation_level */ '2;1');

FILE_NAME(
/* name */ '881-D1850L25-02',
/* time_stamp */ '2011-11-16T12:45:58+01:00',
/* author */ ('CappDp'),
/* organization */ ('AB Sandvik Coromant'),
/* preprocessor_version */ 'ST-DEVELOPER v11',
/* originating_system */ 'SIEMENS UGS NX 6.0',
/* authorisation */ '');

FILE_SCHEMA (('AP203_CONFIGURATION_CONTROLLED_3D_DESIGN_OF_MECHANICAL_PARTS_AND_ASSEMBLIES_MIM_LF'));
ENDSEC;

DATA;
#10=SHAPE_REPRESENTATION_RELATIONSHIP('None',
'relationship between 5858_2_3D-None and 5858_2_3D-None',#94,#11);
#11=ADVANCED_BREP_SHAPE_REPRESENTATION('5858_2_3D-None',(#115,#116),#659);
#12=CC_DESIGN_APPROVAL(#24,(#82));
#13=CC_DESIGN_APPROVAL(#25,(#84));
#14=CC_DESIGN_APPROVAL(#26,(#31));
#15=APPROVAL_PERSON_ORGANIZATION(#69,#24,#18);
#16=APPROVAL_PERSON_ORGANIZATION(#70,#25,#19);
#17=APPROVAL_PERSON_ORGANIZATION(#71,#26,#20);
#18=APPROVAL_ROLE('approver');
#19=APPROVAL_ROLE('approver');
#20=APPROVAL_ROLE('approver');
#21=APPROVAL_DATE_TIME(#39,#24);
#22=APPROVAL_DATE_TIME(#40,#25);
#23=APPROVAL_DATE_TIME(#41,#26);
#24=APPROVAL(#27,' ');
#25=APPROVAL(#28,' ');
#26=APPROVAL(#29,' ');
#27=APPROVAL_STATUS('not_yet_approved');
#28=APPROVAL_STATUS('not_yet_approved');
#29=APPROVAL_STATUS('not_yet_approved');
#30=CC_DESIGN_SECURITY_CLASSIFICATION(#31,(#84));
#31=SECURITY_CLASSIFICATION(' ',' ',#32);
#32=SECURITY_CLASSIFICATION_LEVEL('confidential');
#33=CC_DESIGN_DATE_AND_TIME_ASSIGNMENT(#37,#35,(#82));
#34=CC_DESIGN_DATE_AND_TIME_ASSIGNMENT(#38,#36,(#31));
#35=DATE_TIME_ROLE('creation_date');
#36=DATE_TIME_ROLE('classification_date');
#37=DATE_AND_TIME(#52,#42);
#38=DATE_AND_TIME(#53,#43);
#39=DATE_AND_TIME(#54,#44);
#40=DATE_AND_TIME(#55,#45);
#41=DATE_AND_TIME(#56,#46);
#42=LOCAL_TIME(0,0,0.,#47);
#43=LOCAL_TIME(0,0,0.,#48);
#44=LOCAL_TIME(0,0,0.,#49);
#45=LOCAL_TIME(0,0,0.,#50);
#46=LOCAL_TIME(0,0,0.,#51);
#47=COORDINATED_UNIVERSAL_TIME_OFFSET(0,0,.BEHIND.);
#48=COORDINATED_UNIVERSAL_TIME_OFFSET(0,0,.BEHIND.);
#49=COORDINATED_UNIVERSAL_TIME_OFFSET(0,0,.BEHIND.);
#50=COORDINATED_UNIVERSAL_TIME_OFFSET(0,0,.BEHIND.);
#51=COORDINATED_UNIVERSAL_TIME_OFFSET(0,0,.BEHIND.);
#52=CALENDAR_DATE(0,1,1);
#53=CALENDAR_DATE(0,1,1);
#54=CALENDAR_DATE(0,1,1);
#55=CALENDAR_DATE(0,1,1);
#56=CALENDAR_DATE(0,1,1);
#57=CC_DESIGN_PERSON_AND_ORGANIZATION_ASSIGNMENT(#65,#61,(#82,#84));
#58=CC_DESIGN_PERSON_AND_ORGANIZATION_ASSIGNMENT(#66,#62,(#86));
#59=CC_DESIGN_PERSON_AND_ORGANIZATION_ASSIGNMENT(#67,#63,(#84));
#60=CC_DESIGN_PERSON_AND_ORGANIZATION_ASSIGNMENT(#68,#64,(#31));
#61=PERSON_AND_ORGANIZATION_ROLE('creator');
#62=PERSON_AND_ORGANIZATION_ROLE('design_owner');
#63=PERSON_AND_ORGANIZATION_ROLE('design_supplier');
#64=PERSON_AND_ORGANIZATION_ROLE('classification_officer');
#65=PERSON_AND_ORGANIZATION(#79,#72);
#66=PERSON_AND_ORGANIZATION(#79,#73);
#67=PERSON_AND_ORGANIZATION(#79,#74);
#68=PERSON_AND_ORGANIZATION(#79,#75);
#69=PERSON_AND_ORGANIZATION(#79,#76);
#70=PERSON_AND_ORGANIZATION(#79,#77);
#71=PERSON_AND_ORGANIZATION(#79,#78);
#72=ORGANIZATION(' ',' ',' ');
#73=ORGANIZATION(' ',' ',' ');
#74=ORGANIZATION(' ',' ',' ');
#75=ORGANIZATION(' ',' ',' ');
#76=ORGANIZATION(' ',' ',' ');
#77=ORGANIZATION(' ',' ',' ');
#78=ORGANIZATION(' ',' ',' ');
#79=PERSON(' ',' ',' ',(' '),$,$);
#80=SHAPE_DEFINITION_REPRESENTATION(#81,#94);
#81=PRODUCT_DEFINITION_SHAPE('','',#82);
#82=PRODUCT_DEFINITION(' ','',#84,#83);
#83=DESIGN_CONTEXT('',#93,'design');
#84=PRODUCT_DEFINITION_FORMATION_WITH_SPECIFIED_SOURCE(' ',' ',#86,.NOT_KNOWN.);
#85=PRODUCT_RELATED_PRODUCT_CATEGORY('detail','',(#86));
#86=PRODUCT('5858_2_3D','5858_2_3D',' ',(#91));
#87=PRODUCT_CATEGORY_RELATIONSHIP(' ',' ',#89,#90);
#88=PRODUCT_CATEGORY_RELATIONSHIP('','',#90,#85);
#89=PRODUCT_CATEGORY('part',' ');
#90=PRODUCT_CATEGORY(' ','');
#91=MECHANICAL_CONTEXT(' ',#93,'mechanical');
#92=APPLICATION_PROTOCOL_DEFINITION('international standard',
'config_control_design',1994,#93);
#93=APPLICATION_CONTEXT(
'configuration controlled 3D designs of mechanical parts and assemblies');
#94=SHAPE_REPRESENTATION('5858_2_3D-None',(#390),#659);
#95=(
BOUNDED_SURFACE()
B_SPLINE_SURFACE(3,3,((#601,#602,#603,#604,#605,#606,#607),(#608,#609,#610,
#611,#612,#613,#614),(#615,#616,#617,#618,#619,#620,#621),(#622,#623,#624,
#625,#626,#627,#628)),.UNSPECIFIED.,.F.,.T.,.F.)
B_SPLINE_SURFACE_WITH_KNOTS((4,4),(1,3,3,3,1),(0.,1.),(-0.5,0.,0.5,1.,1.5),
 .UNSPECIFIED.)
GEOMETRIC_REPRESENTATION_ITEM()
RATIONAL_B_SPLINE_SURFACE(((1.,0.333333333333333,0.333333333333333,1.,0.333333333333333,
0.333333333333333,1.),(0.995218480518595,0.331739493506198,0.331739493506198,
0.995218480518595,0.331739493506198,0.331739493506198,0.995218480518595),
(0.995218480518595,0.331739493506198,0.331739493506198,0.995218480518595,
0.331739493506198,0.331739493506198,0.995218480518595),(1.,0.333333333333333,
0.333333333333333,1.,0.333333333333333,0.333333333333333,1.)))
REPRESENTATION_ITEM('')
SURFACE()
);
#96=VERTEX_LOOP('',#354);
#97=VERTEX_LOOP('',#363);
#98=PRESENTATION_LAYER_ASSIGNMENT('1','Layer 1',(#115,#116));
#99=STYLED_ITEM('',(#101),#115);
#100=STYLED_ITEM('',(#102),#116);
#101=PRESENTATION_STYLE_ASSIGNMENT((#103));
#102=PRESENTATION_STYLE_ASSIGNMENT((#104));
#103=SURFACE_STYLE_USAGE(.BOTH.,#105);
#104=SURFACE_STYLE_USAGE(.BOTH.,#106);
#105=SURFACE_SIDE_STYLE('',(#107));
#106=SURFACE_SIDE_STYLE('',(#108));
#107=SURFACE_STYLE_FILL_AREA(#109);
#108=SURFACE_STYLE_FILL_AREA(#110);
#109=FILL_AREA_STYLE('',(#111));
#110=FILL_AREA_STYLE('',(#112));
#111=FILL_AREA_STYLE_COLOUR('',#113);
#112=FILL_AREA_STYLE_COLOUR('',#114);
#113=COLOUR_RGB('TLS_NOCUT',0.499992370489052,0.499992370489052,0.499992370489052);
#114=COLOUR_RGB('TLS_CUT',0.8,0.8,0.8);
#115=MANIFOLD_SOLID_BREP('NOCUT',#117);
#116=MANIFOLD_SOLID_BREP('CUT',#118);
#117=CLOSED_SHELL('',(#140,#141,#142,#143,#144,#145,#146,#147,#148,#149,
#150,#151,#152,#153,#154));
#118=CLOSED_SHELL('',(#155,#156,#157,#158,#159,#160,#161,#162,#163,#164,
#165));
#119=TOROIDAL_SURFACE('',#402,12.89675,0.8);
#120=TOROIDAL_SURFACE('',#416,16.8,8.);
#121=TOROIDAL_SURFACE('',#417,8.6342,7.3658);
#122=TOROIDAL_SURFACE('',#434,8.456,0.794000000000001);
#123=CONICAL_SURFACE('',#396,12.49675,44.9999999999999);
#124=CONICAL_SURFACE('',#400,12.49675,51.0000000000141);
#125=CONICAL_SURFACE('',#404,12.49675,19.0179518126389);
#126=CONICAL_SURFACE('',#410,16.,45.);
#127=CONICAL_SURFACE('',#421,0.183496557837705,81.9999999999998);
#128=CONICAL_SURFACE('',#423,2.75,81.9999999999999);
#129=CONICAL_SURFACE('',#425,6.06339370673489,84.9999999999998);
#130=CONICAL_SURFACE('',#428,3.06281535888162,52.0840937014011);
#131=CONICAL_SURFACE('',#430,8.70115580928095,2.99999999999992);
#132=CONICAL_SURFACE('',#432,8.89885820929728,22.9999999999999);
#133=CONICAL_SURFACE('',#435,8.60750234232897,79.0000000000001);
#134=CONICAL_SURFACE('',#437,5.7,89.8515471397458);
#135=PLANE('',#394);
#136=PLANE('',#408);
#137=PLANE('',#418);
#138=FACE_OUTER_BOUND('',#245,.T.);
#139=FACE_OUTER_BOUND('',#270,.T.);
#140=ADVANCED_FACE('',(#195,#196),#166,.T.);
#141=ADVANCED_FACE('',(#138),#135,.F.);
#142=ADVANCED_FACE('',(#197,#198),#123,.T.);
#143=ADVANCED_FACE('',(#199,#200),#167,.T.);
#144=ADVANCED_FACE('',(#201,#202),#124,.T.);
#145=ADVANCED_FACE('',(#203,#204),#119,.F.);
#146=ADVANCED_FACE('',(#205,#206),#125,.T.);
#147=ADVANCED_FACE('',(#207,#208),#168,.T.);
#148=ADVANCED_FACE('',(#209,#210),#136,.F.);
#149=ADVANCED_FACE('',(#211,#212),#126,.T.);
#150=ADVANCED_FACE('',(#213,#214),#169,.T.);
#151=ADVANCED_FACE('',(#215,#216),#170,.T.);
#152=ADVANCED_FACE('',(#217,#218),#120,.F.);
#153=ADVANCED_FACE('',(#219,#220),#121,.T.);
#154=ADVANCED_FACE('',(#139),#137,.T.);
#155=ADVANCED_FACE('',(#221,#222),#95,.T.);
#156=ADVANCED_FACE('',(#223,#224),#127,.F.);
#157=ADVANCED_FACE('',(#225,#226),#128,.T.);
#158=ADVANCED_FACE('',(#227,#228),#129,.F.);
#159=ADVANCED_FACE('',(#229,#230),#130,.F.);
#160=ADVANCED_FACE('',(#231,#232),#131,.T.);
#161=ADVANCED_FACE('',(#233,#234),#132,.T.);
#162=ADVANCED_FACE('',(#235,#236),#122,.T.);
#163=ADVANCED_FACE('',(#237,#238),#133,.T.);
#164=ADVANCED_FACE('',(#239,#240),#134,.F.);
#165=ADVANCED_FACE('',(#241,#242),#171,.T.);
#166=CYLINDRICAL_SURFACE('',#392,8.80005);
#167=CYLINDRICAL_SURFACE('',#398,12.49675);
#168=CYLINDRICAL_SURFACE('',#406,12.49675);
#169=CYLINDRICAL_SURFACE('',#412,16.);
#170=CYLINDRICAL_SURFACE('',#414,8.8);
#171=CYLINDRICAL_SURFACE('',#438,5.7);
#172=CIRCLE('',#391,8.80005);
#173=CIRCLE('',#393,11.5);
#174=CIRCLE('',#395,12.49675);
#175=CIRCLE('',#397,12.49675);
#176=CIRCLE('',#399,12.3932936871601);
#177=CIRCLE('',#401,12.1404167817994);
#178=CIRCLE('',#403,12.49675);
#179=CIRCLE('',#405,12.49675);
#180=CIRCLE('',#407,15.8);
#181=CIRCLE('',#409,16.);
#182=CIRCLE('',#411,16.);
#183=CIRCLE('',#413,8.8);
#184=CIRCLE('',#415,12.5485845188671);
#185=CIRCLE('',#419,0.183496557837705);
#186=CIRCLE('',#420,2.75);
#187=CIRCLE('',#422,4.48383817089879);
#188=CIRCLE('',#424,6.06339370673489);
#189=CIRCLE('',#426,8.70115580928095);
#190=CIRCLE('',#427,5.7);
#191=CIRCLE('',#429,8.89885820929728);
#192=CIRCLE('',#431,9.18688085364124);
#193=CIRCLE('',#433,8.60750234232897);
#194=CIRCLE('',#436,5.7);
#195=FACE_BOUND('',#243,.T.);
#196=FACE_BOUND('',#244,.T.);
#197=FACE_BOUND('',#246,.T.);
#198=FACE_BOUND('',#247,.T.);
#199=FACE_BOUND('',#248,.T.);
#200=FACE_BOUND('',#249,.T.);
#201=FACE_BOUND('',#250,.T.);
#202=FACE_BOUND('',#251,.T.);
#203=FACE_BOUND('',#252,.T.);
#204=FACE_BOUND('',#253,.T.);
#205=FACE_BOUND('',#254,.T.);
#206=FACE_BOUND('',#255,.T.);
#207=FACE_BOUND('',#256,.T.);
#208=FACE_BOUND('',#257,.T.);
#209=FACE_BOUND('',#258,.T.);
#210=FACE_BOUND('',#259,.T.);
#211=FACE_BOUND('',#260,.T.);
#212=FACE_BOUND('',#261,.T.);
#213=FACE_BOUND('',#262,.T.);
#214=FACE_BOUND('',#263,.T.);
#215=FACE_BOUND('',#264,.T.);
#216=FACE_BOUND('',#265,.T.);
#217=FACE_BOUND('',#266,.T.);
#218=FACE_BOUND('',#267,.T.);
#219=FACE_BOUND('',#268,.T.);
#220=FACE_BOUND('',#269,.T.);
#221=FACE_BOUND('',#271,.T.);
#222=FACE_BOUND('',#96,.T.);
#223=FACE_BOUND('',#272,.T.);
#224=FACE_BOUND('',#273,.T.);
#225=FACE_BOUND('',#274,.T.);
#226=FACE_BOUND('',#275,.T.);
#227=FACE_BOUND('',#276,.T.);
#228=FACE_BOUND('',#277,.T.);
#229=FACE_BOUND('',#278,.T.);
#230=FACE_BOUND('',#279,.T.);
#231=FACE_BOUND('',#280,.T.);
#232=FACE_BOUND('',#281,.T.);
#233=FACE_BOUND('',#282,.T.);
#234=FACE_BOUND('',#283,.T.);
#235=FACE_BOUND('',#284,.T.);
#236=FACE_BOUND('',#285,.T.);
#237=FACE_BOUND('',#286,.T.);
#238=FACE_BOUND('',#287,.T.);
#239=FACE_BOUND('',#97,.T.);
#240=FACE_BOUND('',#288,.T.);
#241=FACE_BOUND('',#289,.T.);
#242=FACE_BOUND('',#290,.T.);
#243=EDGE_LOOP('',(#291));
#244=EDGE_LOOP('',(#292));
#245=EDGE_LOOP('',(#293));
#246=EDGE_LOOP('',(#294));
#247=EDGE_LOOP('',(#295));
#248=EDGE_LOOP('',(#296));
#249=EDGE_LOOP('',(#297));
#250=EDGE_LOOP('',(#298));
#251=EDGE_LOOP('',(#299));
#252=EDGE_LOOP('',(#300));
#253=EDGE_LOOP('',(#301));
#254=EDGE_LOOP('',(#302));
#255=EDGE_LOOP('',(#303));
#256=EDGE_LOOP('',(#304));
#257=EDGE_LOOP('',(#305));
#258=EDGE_LOOP('',(#306));
#259=EDGE_LOOP('',(#307));
#260=EDGE_LOOP('',(#308));
#261=EDGE_LOOP('',(#309));
#262=EDGE_LOOP('',(#310));
#263=EDGE_LOOP('',(#311));
#264=EDGE_LOOP('',(#312));
#265=EDGE_LOOP('',(#313));
#266=EDGE_LOOP('',(#314));
#267=EDGE_LOOP('',(#315));
#268=EDGE_LOOP('',(#316));
#269=EDGE_LOOP('',(#317));
#270=EDGE_LOOP('',(#318));
#271=EDGE_LOOP('',(#319));
#272=EDGE_LOOP('',(#320));
#273=EDGE_LOOP('',(#321));
#274=EDGE_LOOP('',(#322));
#275=EDGE_LOOP('',(#323));
#276=EDGE_LOOP('',(#324));
#277=EDGE_LOOP('',(#325));
#278=EDGE_LOOP('',(#326));
#279=EDGE_LOOP('',(#327));
#280=EDGE_LOOP('',(#328));
#281=EDGE_LOOP('',(#329));
#282=EDGE_LOOP('',(#330));
#283=EDGE_LOOP('',(#331));
#284=EDGE_LOOP('',(#332));
#285=EDGE_LOOP('',(#333));
#286=EDGE_LOOP('',(#334));
#287=EDGE_LOOP('',(#335));
#288=EDGE_LOOP('',(#336));
#289=EDGE_LOOP('',(#337));
#290=EDGE_LOOP('',(#338));
#291=ORIENTED_EDGE('',*,*,#365,.F.);
#292=ORIENTED_EDGE('',*,*,#366,.F.);
#293=ORIENTED_EDGE('',*,*,#367,.T.);
#294=ORIENTED_EDGE('',*,*,#367,.F.);
#295=ORIENTED_EDGE('',*,*,#368,.T.);
#296=ORIENTED_EDGE('',*,*,#368,.F.);
#297=ORIENTED_EDGE('',*,*,#369,.T.);
#298=ORIENTED_EDGE('',*,*,#370,.T.);
#299=ORIENTED_EDGE('',*,*,#369,.F.);
#300=ORIENTED_EDGE('',*,*,#370,.F.);
#301=ORIENTED_EDGE('',*,*,#371,.T.);
#302=ORIENTED_EDGE('',*,*,#371,.F.);
#303=ORIENTED_EDGE('',*,*,#372,.T.);
#304=ORIENTED_EDGE('',*,*,#372,.F.);
#305=ORIENTED_EDGE('',*,*,#373,.T.);
#306=ORIENTED_EDGE('',*,*,#373,.F.);
#307=ORIENTED_EDGE('',*,*,#374,.T.);
#308=ORIENTED_EDGE('',*,*,#374,.F.);
#309=ORIENTED_EDGE('',*,*,#375,.T.);
#310=ORIENTED_EDGE('',*,*,#375,.F.);
#311=ORIENTED_EDGE('',*,*,#376,.T.);
#312=ORIENTED_EDGE('',*,*,#377,.F.);
#313=ORIENTED_EDGE('',*,*,#365,.T.);
#314=ORIENTED_EDGE('',*,*,#378,.F.);
#315=ORIENTED_EDGE('',*,*,#377,.T.);
#316=ORIENTED_EDGE('',*,*,#378,.T.);
#317=ORIENTED_EDGE('',*,*,#376,.F.);
#318=ORIENTED_EDGE('',*,*,#366,.T.);
#319=ORIENTED_EDGE('',*,*,#379,.F.);
#320=ORIENTED_EDGE('',*,*,#380,.F.);
#321=ORIENTED_EDGE('',*,*,#379,.T.);
#322=ORIENTED_EDGE('',*,*,#381,.T.);
#323=ORIENTED_EDGE('',*,*,#380,.T.);
#324=ORIENTED_EDGE('',*,*,#382,.F.);
#325=ORIENTED_EDGE('',*,*,#381,.F.);
#326=ORIENTED_EDGE('',*,*,#383,.T.);
#327=ORIENTED_EDGE('',*,*,#384,.F.);
#328=ORIENTED_EDGE('',*,*,#385,.T.);
#329=ORIENTED_EDGE('',*,*,#383,.F.);
#330=ORIENTED_EDGE('',*,*,#386,.T.);
#331=ORIENTED_EDGE('',*,*,#385,.F.);
#332=ORIENTED_EDGE('',*,*,#387,.T.);
#333=ORIENTED_EDGE('',*,*,#386,.F.);
#334=ORIENTED_EDGE('',*,*,#382,.T.);
#335=ORIENTED_EDGE('',*,*,#387,.F.);
#336=ORIENTED_EDGE('',*,*,#388,.T.);
#337=ORIENTED_EDGE('',*,*,#384,.T.);
#338=ORIENTED_EDGE('',*,*,#388,.F.);
#339=VERTEX_POINT('',#556);
#340=VERTEX_POINT('',#558);
#341=VERTEX_POINT('',#561);
#342=VERTEX_POINT('',#564);
#343=VERTEX_POINT('',#567);
#344=VERTEX_POINT('',#570);
#345=VERTEX_POINT('',#573);
#346=VERTEX_POINT('',#576);
#347=VERTEX_POINT('',#579);
#348=VERTEX_POINT('',#582);
#349=VERTEX_POINT('',#585);
#350=VERTEX_POINT('',#588);
#351=VERTEX_POINT('',#591);
#352=VERTEX_POINT('',#594);
#353=VERTEX_POINT('',#599);
#354=VERTEX_POINT('',#600);
#355=VERTEX_POINT('',#630);
#356=VERTEX_POINT('',#633);
#357=VERTEX_POINT('',#636);
#358=VERTEX_POINT('',#639);
#359=VERTEX_POINT('',#641);
#360=VERTEX_POINT('',#644);
#361=VERTEX_POINT('',#647);
#362=VERTEX_POINT('',#650);
#363=VERTEX_POINT('',#653);
#364=VERTEX_POINT('',#655);
#365=EDGE_CURVE('',#339,#339,#389,.T.);
#366=EDGE_CURVE('',#340,#340,#172,.T.);
#367=EDGE_CURVE('',#341,#341,#173,.T.);
#368=EDGE_CURVE('',#342,#342,#174,.T.);
#369=EDGE_CURVE('',#343,#343,#175,.T.);
#370=EDGE_CURVE('',#344,#344,#176,.T.);
#371=EDGE_CURVE('',#345,#345,#177,.T.);
#372=EDGE_CURVE('',#346,#346,#178,.T.);
#373=EDGE_CURVE('',#347,#347,#179,.T.);
#374=EDGE_CURVE('',#348,#348,#180,.T.);
#375=EDGE_CURVE('',#349,#349,#181,.T.);
#376=EDGE_CURVE('',#350,#350,#182,.T.);
#377=EDGE_CURVE('',#351,#351,#183,.T.);
#378=EDGE_CURVE('',#352,#352,#184,.T.);
#379=EDGE_CURVE('',#353,#353,#185,.T.);
#380=EDGE_CURVE('',#355,#355,#186,.T.);
#381=EDGE_CURVE('',#356,#356,#187,.T.);
#382=EDGE_CURVE('',#357,#357,#188,.T.);
#383=EDGE_CURVE('',#358,#358,#189,.T.);
#384=EDGE_CURVE('',#359,#359,#190,.T.);
#385=EDGE_CURVE('',#360,#360,#191,.T.);
#386=EDGE_CURVE('',#361,#361,#192,.T.);
#387=EDGE_CURVE('',#362,#362,#193,.T.);
#388=EDGE_CURVE('',#364,#364,#194,.T.);
#389=B_SPLINE_CURVE_WITH_KNOTS('',3,(#538,#539,#540,#541,#542,#543,#544,
#545,#546,#547,#548,#549,#550,#551,#552,#553,#554,#555),.UNSPECIFIED.,.T.,
 .F.,(2,2,2,2,2,2,2,2,2,2,2),(-0.125,0.,0.125,0.25,0.375,0.5,0.625,0.75,
0.875,1.,1.125),.UNSPECIFIED.);
#390=AXIS2_PLACEMENT_3D('',#537,#439,#440);
#391=AXIS2_PLACEMENT_3D('',#557,#441,#442);
#392=AXIS2_PLACEMENT_3D('',#559,#443,#444);
#393=AXIS2_PLACEMENT_3D('',#560,#445,#446);
#394=AXIS2_PLACEMENT_3D('',#562,#447,#448);
#395=AXIS2_PLACEMENT_3D('',#563,#449,#450);
#396=AXIS2_PLACEMENT_3D('',#565,#451,#452);
#397=AXIS2_PLACEMENT_3D('',#566,#453,#454);
#398=AXIS2_PLACEMENT_3D('',#568,#455,#456);
#399=AXIS2_PLACEMENT_3D('',#569,#457,#458);
#400=AXIS2_PLACEMENT_3D('',#571,#459,#460);
#401=AXIS2_PLACEMENT_3D('',#572,#461,#462);
#402=AXIS2_PLACEMENT_3D('',#574,#463,#464);
#403=AXIS2_PLACEMENT_3D('',#575,#465,#466);
#404=AXIS2_PLACEMENT_3D('',#577,#467,#468);
#405=AXIS2_PLACEMENT_3D('',#578,#469,#470);
#406=AXIS2_PLACEMENT_3D('',#580,#471,#472);
#407=AXIS2_PLACEMENT_3D('',#581,#473,#474);
#408=AXIS2_PLACEMENT_3D('',#583,#475,#476);
#409=AXIS2_PLACEMENT_3D('',#584,#477,#478);
#410=AXIS2_PLACEMENT_3D('',#586,#479,#480);
#411=AXIS2_PLACEMENT_3D('',#587,#481,#482);
#412=AXIS2_PLACEMENT_3D('',#589,#483,#484);
#413=AXIS2_PLACEMENT_3D('',#590,#485,#486);
#414=AXIS2_PLACEMENT_3D('',#592,#487,#488);
#415=AXIS2_PLACEMENT_3D('',#593,#489,#490);
#416=AXIS2_PLACEMENT_3D('',#595,#491,#492);
#417=AXIS2_PLACEMENT_3D('',#596,#493,#494);
#418=AXIS2_PLACEMENT_3D('',#597,#495,#496);
#419=AXIS2_PLACEMENT_3D('',#598,#497,#498);
#420=AXIS2_PLACEMENT_3D('',#629,#499,#500);
#421=AXIS2_PLACEMENT_3D('',#631,#501,#502);
#422=AXIS2_PLACEMENT_3D('',#632,#503,#504);
#423=AXIS2_PLACEMENT_3D('',#634,#505,#506);
#424=AXIS2_PLACEMENT_3D('',#635,#507,#508);
#425=AXIS2_PLACEMENT_3D('',#637,#509,#510);
#426=AXIS2_PLACEMENT_3D('',#638,#511,#512);
#427=AXIS2_PLACEMENT_3D('',#640,#513,#514);
#428=AXIS2_PLACEMENT_3D('',#642,#515,#516);
#429=AXIS2_PLACEMENT_3D('',#643,#517,#518);
#430=AXIS2_PLACEMENT_3D('',#645,#519,#520);
#431=AXIS2_PLACEMENT_3D('',#646,#521,#522);
#432=AXIS2_PLACEMENT_3D('',#648,#523,#524);
#433=AXIS2_PLACEMENT_3D('',#649,#525,#526);
#434=AXIS2_PLACEMENT_3D('',#651,#527,#528);
#435=AXIS2_PLACEMENT_3D('',#652,#529,#530);
#436=AXIS2_PLACEMENT_3D('',#654,#531,#532);
#437=AXIS2_PLACEMENT_3D('',#656,#533,#534);
#438=AXIS2_PLACEMENT_3D('',#657,#535,#536);
#439=DIRECTION('',(0.,0.,1.));
#440=DIRECTION('',(1.,0.,0.));
#441=DIRECTION('',(0.,0.,-1.));
#442=DIRECTION('',(0.,-1.,0.));
#443=DIRECTION('',(0.,0.,1.));
#444=DIRECTION('',(0.,1.,0.));
#445=DIRECTION('',(0.,0.,1.));
#446=DIRECTION('',(0.,1.,0.));
#447=DIRECTION('',(0.,0.,-1.));
#448=DIRECTION('',(0.,-1.,0.));
#449=DIRECTION('',(0.,0.,1.));
#450=DIRECTION('',(0.,1.,0.));
#451=DIRECTION('',(0.,0.,-1.));
#452=DIRECTION('',(0.,-1.,0.));
#453=DIRECTION('',(0.,0.,1.));
#454=DIRECTION('',(0.,1.,0.));
#455=DIRECTION('',(0.,0.,1.));
#456=DIRECTION('',(0.,1.,0.));
#457=DIRECTION('',(0.,0.,1.));
#458=DIRECTION('',(0.,1.,0.));
#459=DIRECTION('',(0.,0.,1.));
#460=DIRECTION('',(0.,1.,-4.45017014596666E-017));
#461=DIRECTION('',(0.,0.,1.));
#462=DIRECTION('',(0.,1.,0.));
#463=DIRECTION('',(0.,0.,1.));
#464=DIRECTION('',(0.,1.,0.));
#465=DIRECTION('',(0.,0.,1.));
#466=DIRECTION('',(0.,1.,0.));
#467=DIRECTION('',(0.,0.,-1.));
#468=DIRECTION('',(0.,-1.,-1.55417293840719E-016));
#469=DIRECTION('',(0.,0.,1.));
#470=DIRECTION('',(0.,1.,0.));
#471=DIRECTION('',(0.,0.,1.));
#472=DIRECTION('',(0.,1.,0.));
#473=DIRECTION('',(0.,0.,1.));
#474=DIRECTION('',(0.,1.,0.));
#475=DIRECTION('',(0.,0.,-1.));
#476=DIRECTION('',(0.,-1.,0.));
#477=DIRECTION('',(0.,0.,1.));
#478=DIRECTION('',(0.,1.,0.));
#479=DIRECTION('',(0.,0.,-1.));
#480=DIRECTION('',(0.,-1.,-4.09777199049639E-017));
#481=DIRECTION('',(0.,0.,1.));
#482=DIRECTION('',(0.,1.,0.));
#483=DIRECTION('',(0.,0.,1.));
#484=DIRECTION('',(0.,1.,0.));
#485=DIRECTION('',(0.,0.,1.));
#486=DIRECTION('',(0.,1.,0.));
#487=DIRECTION('',(0.,0.,1.));
#488=DIRECTION('',(0.,1.,0.));
#489=DIRECTION('',(0.,0.,1.));
#490=DIRECTION('',(0.,1.,0.));
#491=DIRECTION('',(0.,0.,1.));
#492=DIRECTION('',(0.,1.,0.));
#493=DIRECTION('',(0.,0.,1.));
#494=DIRECTION('',(0.,1.,0.));
#495=DIRECTION('',(0.,0.,-1.));
#496=DIRECTION('',(0.,-1.,0.));
#497=DIRECTION('',(0.,0.,1.));
#498=DIRECTION('',(0.,1.,0.));
#499=DIRECTION('',(0.,0.,1.));
#500=DIRECTION('',(0.,1.,0.));
#501=DIRECTION('',(0.,0.,-1.));
#502=DIRECTION('',(0.,-1.,-1.95034558533991E-018));
#503=DIRECTION('',(0.,0.,-1.));
#504=DIRECTION('',(0.,-1.,0.));
#505=DIRECTION('',(0.,0.,1.));
#506=DIRECTION('',(0.,1.,0.));
#507=DIRECTION('',(0.,0.,1.));
#508=DIRECTION('',(0.,1.,0.));
#509=DIRECTION('',(0.,0.,-1.));
#510=DIRECTION('',(0.,-1.,8.49453758890413E-018));
#511=DIRECTION('',(0.,0.,1.));
#512=DIRECTION('',(0.,1.,0.));
#513=DIRECTION('',(0.,0.,1.));
#514=DIRECTION('',(0.,1.,0.));
#515=DIRECTION('',(0.,0.,1.));
#516=DIRECTION('',(0.,1.,-3.23520734428689E-017));
#517=DIRECTION('',(0.,0.,1.));
#518=DIRECTION('',(0.,1.,0.));
#519=DIRECTION('',(0.,0.,-1.));
#520=DIRECTION('',(0.,-1.,-1.58969411769227E-015));
#521=DIRECTION('',(0.,0.,1.));
#522=DIRECTION('',(0.,1.,0.));
#523=DIRECTION('',(0.,0.,-1.));
#524=DIRECTION('',(0.,-1.,-6.40453660523927E-017));
#525=DIRECTION('',(0.,0.,1.));
#526=DIRECTION('',(0.,1.,0.));
#527=DIRECTION('',(0.,0.,1.));
#528=DIRECTION('',(0.,1.,0.));
#529=DIRECTION('',(0.,0.,1.));
#530=DIRECTION('',(0.,1.,6.73265710695137E-018));
#531=DIRECTION('',(0.,0.,1.));
#532=DIRECTION('',(0.,1.,0.));
#533=DIRECTION('',(0.,0.,1.));
#534=DIRECTION('',(0.,1.,7.19135509026247E-020));
#535=DIRECTION('',(0.,0.,1.));
#536=DIRECTION('',(0.,1.,0.));
#537=CARTESIAN_POINT('',(0.,0.,0.));
#538=CARTESIAN_POINT('',(-8.8,2.30383461263252,-42.7999999999999));
#539=CARTESIAN_POINT('',(-8.8,-2.30383461263251,-42.7999999999999));
#540=CARTESIAN_POINT('',(-7.85159675176635,-4.59348259711688,-42.7999999999999));
#541=CARTESIAN_POINT('',(-4.59348259711689,-7.85159675176635,-42.7999999999999));
#542=CARTESIAN_POINT('',(-2.30383461263252,-8.8,-42.7999999999999));
#543=CARTESIAN_POINT('',(2.30383461263251,-8.8,-42.7999999999999));
#544=CARTESIAN_POINT('',(4.59348259711688,-7.85159675176636,-42.7999999999999));
#545=CARTESIAN_POINT('',(7.85159675176635,-4.59348259711688,-42.7999999999999));
#546=CARTESIAN_POINT('',(8.8,-2.30383461263252,-42.7999999999999));
#547=CARTESIAN_POINT('',(8.8,2.30383461263251,-42.7999999999999));
#548=CARTESIAN_POINT('',(7.85159675176635,4.59348259711688,-42.7999999999999));
#549=CARTESIAN_POINT('',(4.59348259711689,7.85159675176635,-42.7999999999999));
#550=CARTESIAN_POINT('',(2.30383461263252,8.8,-42.7999999999999));
#551=CARTESIAN_POINT('',(-2.30383461263251,8.80000000000001,-42.7999999999999));
#552=CARTESIAN_POINT('',(-4.59348259711688,7.85159675176635,-42.7999999999999));
#553=CARTESIAN_POINT('',(-7.85159675176635,4.59348259711689,-42.8));
#554=CARTESIAN_POINT('',(-8.8,2.30383461263252,-42.7999999999999));
#555=CARTESIAN_POINT('',(-8.8,-2.30383461263251,-42.7999999999999));
#556=CARTESIAN_POINT('',(-8.800025,5.38846122433334E-016,-42.7999999999999));
#557=CARTESIAN_POINT('',(0.,0.,-55.7999999999999));
#558=CARTESIAN_POINT('',(0.,-8.80005,-55.7999999999999));
#559=CARTESIAN_POINT('',(0.,0.,-56.7999999999999));
#560=CARTESIAN_POINT('',(0.,0.,56.0000000000001));
#561=CARTESIAN_POINT('',(0.,11.5,56.0000000000001));
#562=CARTESIAN_POINT('',(-11.5,0.,56.0000000000001));
#563=CARTESIAN_POINT('',(0.,0.,55.0032500000001));
#564=CARTESIAN_POINT('',(0.,12.49675,55.0032500000001));
#565=CARTESIAN_POINT('',(0.,0.,55.0032500000001));
#566=CARTESIAN_POINT('',(0.,0.,54.60325));
#567=CARTESIAN_POINT('',(0.,12.49675,54.60325));
#568=CARTESIAN_POINT('',(0.,0.,-56.7999999999999));
#569=CARTESIAN_POINT('',(0.,0.,54.5194727297291));
#570=CARTESIAN_POINT('',(0.,12.3932936871601,54.5194727297291));
#571=CARTESIAN_POINT('',(0.,0.,54.60325));
#572=CARTESIAN_POINT('',(0.,0.,53.6370644512152));
#573=CARTESIAN_POINT('',(0.,12.1404167817994,53.6370644512152));
#574=CARTESIAN_POINT('',(0.,0.,53.8977559605636));
#575=CARTESIAN_POINT('',(0.,0.,52.60325));
#576=CARTESIAN_POINT('',(0.,12.49675,52.60325));
#577=CARTESIAN_POINT('',(0.,0.,52.60325));
#578=CARTESIAN_POINT('',(0.,0.,6.24500451351651E-014));
#579=CARTESIAN_POINT('',(0.,12.49675,6.24500451351651E-014));
#580=CARTESIAN_POINT('',(0.,0.,-56.7999999999999));
#581=CARTESIAN_POINT('',(0.,0.,6.24500451351651E-014));
#582=CARTESIAN_POINT('',(0.,15.8,6.24500451351651E-014));
#583=CARTESIAN_POINT('',(-15.8,0.,6.24500451351651E-014));
#584=CARTESIAN_POINT('',(0.,0.,-0.199999999999936));
#585=CARTESIAN_POINT('',(0.,16.,-0.199999999999936));
#586=CARTESIAN_POINT('',(0.,0.,-0.199999999999936));
#587=CARTESIAN_POINT('',(0.,0.,-4.998114054479));
#588=CARTESIAN_POINT('',(0.,16.,-4.998114054479));
#589=CARTESIAN_POINT('',(0.,0.,-56.7999999999999));
#590=CARTESIAN_POINT('',(0.,0.,-18.0145467455068));
#591=CARTESIAN_POINT('',(0.,8.8,-18.0145467455068));
#592=CARTESIAN_POINT('',(0.,0.,-56.7999999999999));
#593=CARTESIAN_POINT('',(0.,0.,-11.2377136793332));
#594=CARTESIAN_POINT('',(0.,12.5485845188671,-11.2377136793332));
#595=CARTESIAN_POINT('',(0.,0.,-18.0145467455068));
#596=CARTESIAN_POINT('',(0.,0.,-4.99811405447901));
#597=CARTESIAN_POINT('',(0.,0.,-55.7999999999999));
#598=CARTESIAN_POINT('',(0.,0.,-56.6393014639719));
#599=CARTESIAN_POINT('',(0.,0.183496557837705,-56.6393014639719));
#600=CARTESIAN_POINT('',(1.56603486662328E-014,1.77635683940025E-015,-56.5905921739745));
#601=CARTESIAN_POINT('',(0.,0.183496557837704,-56.6393014639719));
#602=CARTESIAN_POINT('',(-0.366993115675409,0.183496557837704,-56.6393014639719));
#603=CARTESIAN_POINT('',(-0.366993115675409,-0.183496557837704,-56.6393014639719));
#604=CARTESIAN_POINT('',(0.,-0.183496557837704,-56.6393014639719));
#605=CARTESIAN_POINT('',(0.366993115675409,-0.183496557837704,-56.6393014639719));
#606=CARTESIAN_POINT('',(0.366993115675409,0.183496557837704,-56.6393014639719));
#607=CARTESIAN_POINT('',(0.,0.183496557837704,-56.6393014639719));
#608=CARTESIAN_POINT('',(0.,0.120527519763232,-56.6304517428005));
#609=CARTESIAN_POINT('',(-0.241055039526465,0.120527519763232,-56.6304517428005));
#610=CARTESIAN_POINT('',(-0.241055039526465,-0.120527519763232,-56.6304517428005));
#611=CARTESIAN_POINT('',(0.,-0.120527519763232,-56.6304517428005));
#612=CARTESIAN_POINT('',(0.241055039526465,-0.120527519763232,-56.6304517428005));
#613=CARTESIAN_POINT('',(0.241055039526465,0.120527519763232,-56.6304517428005));
#614=CARTESIAN_POINT('',(0.,0.120527519763232,-56.6304517428005));
#615=CARTESIAN_POINT('',(0.,0.0590681312203645,-56.6141373049992));
#616=CARTESIAN_POINT('',(-0.118136262440729,0.0590681312203645,-56.6141373049992));
#617=CARTESIAN_POINT('',(-0.118136262440729,-0.0590681312203645,-56.6141373049992));
#618=CARTESIAN_POINT('',(0.,-0.0590681312203645,-56.6141373049992));
#619=CARTESIAN_POINT('',(0.118136262440729,-0.0590681312203645,-56.6141373049992));
#620=CARTESIAN_POINT('',(0.118136262440729,0.0590681312203645,-56.6141373049992));
#621=CARTESIAN_POINT('',(0.,0.0590681312203645,-56.6141373049992));
#622=CARTESIAN_POINT('',(0.,-3.79470760369927E-016,-56.5905921739745));
#623=CARTESIAN_POINT('',(7.58941520739853E-016,-3.79470760369927E-016,-56.5905921739745));
#624=CARTESIAN_POINT('',(7.58941520739853E-016,3.79470760369927E-016,-56.5905921739745));
#625=CARTESIAN_POINT('',(0.,3.79470760369927E-016,-56.5905921739745));
#626=CARTESIAN_POINT('',(-7.58941520739853E-016,3.79470760369927E-016,-56.5905921739745));
#627=CARTESIAN_POINT('',(-7.58941520739853E-016,-3.79470760369927E-016,-56.5905921739745));
#628=CARTESIAN_POINT('',(0.,-3.79470760369927E-016,-56.5905921739745));
#629=CARTESIAN_POINT('',(0.,0.,-56.9999999999999));
#630=CARTESIAN_POINT('',(0.,2.75,-56.9999999999999));
#631=CARTESIAN_POINT('',(0.,0.,-56.6393014639719));
#632=CARTESIAN_POINT('',(0.,0.,-56.756324936223));
#633=CARTESIAN_POINT('',(0.,-4.48383817089879,-56.756324936223));
#634=CARTESIAN_POINT('',(0.,0.,-56.9999999999999));
#635=CARTESIAN_POINT('',(0.,0.,-56.8945181390182));
#636=CARTESIAN_POINT('',(0.,6.06339370673489,-56.8945181390182));
#637=CARTESIAN_POINT('',(0.,0.,-56.8945181390182));
#638=CARTESIAN_POINT('',(0.,0.,-50.8594156699814));
#639=CARTESIAN_POINT('',(0.,8.70115580928095,-50.8594156699814));
#640=CARTESIAN_POINT('',(0.,0.,-53.197090112708));
#641=CARTESIAN_POINT('',(0.,5.7,-53.197090112708));
#642=CARTESIAN_POINT('',(0.,0.,-55.2512584158759));
#643=CARTESIAN_POINT('',(0.,0.,-54.6318021881851));
#644=CARTESIAN_POINT('',(0.,8.89885820929728,-54.6318021881851));
#645=CARTESIAN_POINT('',(0.,0.,-50.8594156699814));
#646=CARTESIAN_POINT('',(0.,0.,-55.3103410162736));
#647=CARTESIAN_POINT('',(0.,9.18688085364124,-55.3103410162736));
#648=CARTESIAN_POINT('',(0.,0.,-54.6318021881851));
#649=CARTESIAN_POINT('',(0.,0.,-56.3999935159515));
#650=CARTESIAN_POINT('',(0.,8.60750234232897,-56.3999935159515));
#651=CARTESIAN_POINT('',(0.,0.,-55.6205815322941));
#652=CARTESIAN_POINT('',(0.,0.,-56.3999935159515));
#653=CARTESIAN_POINT('',(1.5673466696741E-014,8.88178419700125E-016,-53.1946280457917));
#654=CARTESIAN_POINT('',(0.,0.,-53.1798593629292));
#655=CARTESIAN_POINT('',(0.,5.7,-53.1798593629292));
#656=CARTESIAN_POINT('',(0.,0.,-53.1798593629292));
#657=CARTESIAN_POINT('',(0.,0.,-56.7999999999999));
#658=MECHANICAL_DESIGN_GEOMETRIC_PRESENTATION_REPRESENTATION('',(#99,#100),
#659);
#659=(
GEOMETRIC_REPRESENTATION_CONTEXT(3)
GLOBAL_UNCERTAINTY_ASSIGNED_CONTEXT((#660))
GLOBAL_UNIT_ASSIGNED_CONTEXT((#666,#662,#661))
REPRESENTATION_CONTEXT('5858_2_3D','TOP_LEVEL_ASSEMBLY_PART')
);
#660=UNCERTAINTY_MEASURE_WITH_UNIT(LENGTH_MEASURE(0.0508),#666,
'DISTANCE_ACCURACY_VALUE','Maximum Tolerance applied to model');
#661=(
NAMED_UNIT(*)
SI_UNIT($,.STERADIAN.)
SOLID_ANGLE_UNIT()
);
#662=(
CONVERSION_BASED_UNIT('DEGREE',#664)
NAMED_UNIT(#663)
PLANE_ANGLE_UNIT()
);
#663=DIMENSIONAL_EXPONENTS(0.,0.,0.,0.,0.,0.,0.);
#664=PLANE_ANGLE_MEASURE_WITH_UNIT(PLANE_ANGLE_MEASURE(0.0174532925),#665);
#665=(
NAMED_UNIT(*)
PLANE_ANGLE_UNIT()
SI_UNIT($,.RADIAN.)
);
#666=(
LENGTH_UNIT()
NAMED_UNIT(*)
SI_UNIT(.MILLI.,.METRE.)
);
ENDSEC;
END-ISO-10303-21;
