ISO-10303-21;
HEADER;
/* Generated by software containing ST-Developer
 * from STEP Tools, Inc. (www.steptools.com) 
 */
/* OPTION: using custom schema-name function */

FILE_DESCRIPTION(
/* description */ ('3-D model version:1'),
/* implementation_level */ '2;1');

FILE_NAME(
/* name */ '881-D1800L25-03',
/* time_stamp */ '2011-11-16T12:47:50+01:00',
/* author */ ('CappDp'),
/* organization */ ('AB Sandvik Coromant'),
/* preprocessor_version */ 'ST-DEVELOPER v11',
/* originating_system */ 'SIEMENS UGS NX 6.0',
/* authorisation */ '');

FILE_SCHEMA (('AP203_CONFIGURATION_CONTROLLED_3D_DESIGN_OF_MECHANICAL_PARTS_AND_ASSEMBLIES_MIM_LF'));
ENDSEC;

DATA;
#10=SHAPE_REPRESENTATION_RELATIONSHIP('None',
'relationship between 5873_2_3D-None and 5873_2_3D-None',#94,#11);
#11=ADVANCED_BREP_SHAPE_REPRESENTATION('5873_2_3D-None',(#123,#124),#639);
#12=CC_DESIGN_APPROVAL(#24,(#82));
#13=CC_DESIGN_APPROVAL(#25,(#84));
#14=CC_DESIGN_APPROVAL(#26,(#31));
#15=APPROVAL_PERSON_ORGANIZATION(#69,#24,#18);
#16=APPROVAL_PERSON_ORGANIZATION(#70,#25,#19);
#17=APPROVAL_PERSON_ORGANIZATION(#71,#26,#20);
#18=APPROVAL_ROLE('approver');
#19=APPROVAL_ROLE('approver');
#20=APPROVAL_ROLE('approver');
#21=APPROVAL_DATE_TIME(#39,#24);
#22=APPROVAL_DATE_TIME(#40,#25);
#23=APPROVAL_DATE_TIME(#41,#26);
#24=APPROVAL(#27,' ');
#25=APPROVAL(#28,' ');
#26=APPROVAL(#29,' ');
#27=APPROVAL_STATUS('not_yet_approved');
#28=APPROVAL_STATUS('not_yet_approved');
#29=APPROVAL_STATUS('not_yet_approved');
#30=CC_DESIGN_SECURITY_CLASSIFICATION(#31,(#84));
#31=SECURITY_CLASSIFICATION(' ',' ',#32);
#32=SECURITY_CLASSIFICATION_LEVEL('confidential');
#33=CC_DESIGN_DATE_AND_TIME_ASSIGNMENT(#37,#35,(#82));
#34=CC_DESIGN_DATE_AND_TIME_ASSIGNMENT(#38,#36,(#31));
#35=DATE_TIME_ROLE('creation_date');
#36=DATE_TIME_ROLE('classification_date');
#37=DATE_AND_TIME(#52,#42);
#38=DATE_AND_TIME(#53,#43);
#39=DATE_AND_TIME(#54,#44);
#40=DATE_AND_TIME(#55,#45);
#41=DATE_AND_TIME(#56,#46);
#42=LOCAL_TIME(0,0,0.,#47);
#43=LOCAL_TIME(0,0,0.,#48);
#44=LOCAL_TIME(0,0,0.,#49);
#45=LOCAL_TIME(0,0,0.,#50);
#46=LOCAL_TIME(0,0,0.,#51);
#47=COORDINATED_UNIVERSAL_TIME_OFFSET(0,0,.BEHIND.);
#48=COORDINATED_UNIVERSAL_TIME_OFFSET(0,0,.BEHIND.);
#49=COORDINATED_UNIVERSAL_TIME_OFFSET(0,0,.BEHIND.);
#50=COORDINATED_UNIVERSAL_TIME_OFFSET(0,0,.BEHIND.);
#51=COORDINATED_UNIVERSAL_TIME_OFFSET(0,0,.BEHIND.);
#52=CALENDAR_DATE(0,1,1);
#53=CALENDAR_DATE(0,1,1);
#54=CALENDAR_DATE(0,1,1);
#55=CALENDAR_DATE(0,1,1);
#56=CALENDAR_DATE(0,1,1);
#57=CC_DESIGN_PERSON_AND_ORGANIZATION_ASSIGNMENT(#65,#61,(#82,#84));
#58=CC_DESIGN_PERSON_AND_ORGANIZATION_ASSIGNMENT(#66,#62,(#86));
#59=CC_DESIGN_PERSON_AND_ORGANIZATION_ASSIGNMENT(#67,#63,(#84));
#60=CC_DESIGN_PERSON_AND_ORGANIZATION_ASSIGNMENT(#68,#64,(#31));
#61=PERSON_AND_ORGANIZATION_ROLE('creator');
#62=PERSON_AND_ORGANIZATION_ROLE('design_owner');
#63=PERSON_AND_ORGANIZATION_ROLE('design_supplier');
#64=PERSON_AND_ORGANIZATION_ROLE('classification_officer');
#65=PERSON_AND_ORGANIZATION(#79,#72);
#66=PERSON_AND_ORGANIZATION(#79,#73);
#67=PERSON_AND_ORGANIZATION(#79,#74);
#68=PERSON_AND_ORGANIZATION(#79,#75);
#69=PERSON_AND_ORGANIZATION(#79,#76);
#70=PERSON_AND_ORGANIZATION(#79,#77);
#71=PERSON_AND_ORGANIZATION(#79,#78);
#72=ORGANIZATION(' ',' ',' ');
#73=ORGANIZATION(' ',' ',' ');
#74=ORGANIZATION(' ',' ',' ');
#75=ORGANIZATION(' ',' ',' ');
#76=ORGANIZATION(' ',' ',' ');
#77=ORGANIZATION(' ',' ',' ');
#78=ORGANIZATION(' ',' ',' ');
#79=PERSON(' ',' ',' ',(' '),$,$);
#80=SHAPE_DEFINITION_REPRESENTATION(#81,#94);
#81=PRODUCT_DEFINITION_SHAPE('','',#82);
#82=PRODUCT_DEFINITION(' ','',#84,#83);
#83=DESIGN_CONTEXT('',#93,'design');
#84=PRODUCT_DEFINITION_FORMATION_WITH_SPECIFIED_SOURCE(' ',' ',#86,.NOT_KNOWN.);
#85=PRODUCT_RELATED_PRODUCT_CATEGORY('detail','',(#86));
#86=PRODUCT('5873_2_3D','5873_2_3D',' ',(#91));
#87=PRODUCT_CATEGORY_RELATIONSHIP(' ',' ',#89,#90);
#88=PRODUCT_CATEGORY_RELATIONSHIP('','',#90,#85);
#89=PRODUCT_CATEGORY('part',' ');
#90=PRODUCT_CATEGORY(' ','');
#91=MECHANICAL_CONTEXT(' ',#93,'mechanical');
#92=APPLICATION_PROTOCOL_DEFINITION('international standard',
'config_control_design',1994,#93);
#93=APPLICATION_CONTEXT(
'configuration controlled 3D designs of mechanical parts and assemblies');
#94=SHAPE_REPRESENTATION('5873_2_3D-None',(#379),#639);
#95=PLANE('',#401);
#96=PLANE('',#415);
#97=PLANE('',#425);
#98=FACE_OUTER_BOUND('',#237,.T.);
#99=FACE_OUTER_BOUND('',#262,.T.);
#100=CYLINDRICAL_SURFACE('',#399,8.55005);
#101=CYLINDRICAL_SURFACE('',#405,12.49675);
#102=CYLINDRICAL_SURFACE('',#413,12.49675);
#103=CYLINDRICAL_SURFACE('',#419,16.);
#104=CYLINDRICAL_SURFACE('',#421,8.55);
#105=B_SPLINE_CURVE_WITH_KNOTS('',3,(#578,#579,#580,#581,#582,#583,#584,
#585,#586,#587,#588,#589,#590,#591,#592,#593,#594,#595),.UNSPECIFIED.,.T.,
 .F.,(2,2,2,2,2,2,2,2,2,2,2),(-0.125,0.,0.125,0.25,0.375,0.5,0.625,0.75,
0.875,1.,1.125),.UNSPECIFIED.);
#106=PRESENTATION_LAYER_ASSIGNMENT('1','Layer 1',(#123,#124));
#107=STYLED_ITEM('',(#109),#123);
#108=STYLED_ITEM('',(#110),#124);
#109=PRESENTATION_STYLE_ASSIGNMENT((#111));
#110=PRESENTATION_STYLE_ASSIGNMENT((#112));
#111=SURFACE_STYLE_USAGE(.BOTH.,#113);
#112=SURFACE_STYLE_USAGE(.BOTH.,#114);
#113=SURFACE_SIDE_STYLE('',(#115));
#114=SURFACE_SIDE_STYLE('',(#116));
#115=SURFACE_STYLE_FILL_AREA(#117);
#116=SURFACE_STYLE_FILL_AREA(#118);
#117=FILL_AREA_STYLE('',(#119));
#118=FILL_AREA_STYLE('',(#120));
#119=FILL_AREA_STYLE_COLOUR('',#121);
#120=FILL_AREA_STYLE_COLOUR('',#122);
#121=COLOUR_RGB('TLS_CUT',0.8,0.8,0.8);
#122=COLOUR_RGB('TLS_NOCUT',0.499992370489052,0.499992370489052,0.499992370489052);
#123=MANIFOLD_SOLID_BREP('CUT',#125);
#124=MANIFOLD_SOLID_BREP('NOCUT',#126);
#125=CLOSED_SHELL('',(#134,#135,#136,#137,#138,#139,#140,#141,#142,#143));
#126=CLOSED_SHELL('',(#144,#145,#146,#147,#148,#149,#150,#151,#152,#153,
#154,#155,#156,#157,#158));
#127=(
BOUNDED_SURFACE()
B_SPLINE_SURFACE(3,3,((#544,#545,#546,#547,#548,#549,#550),(#551,#552,#553,
#554,#555,#556,#557),(#558,#559,#560,#561,#562,#563,#564),(#565,#566,#567,
#568,#569,#570,#571)),.UNSPECIFIED.,.F.,.T.,.F.)
B_SPLINE_SURFACE_WITH_KNOTS((4,4),(1,3,3,3,1),(0.,1.),(-0.5,0.,0.5,1.,1.5),
 .UNSPECIFIED.)
GEOMETRIC_REPRESENTATION_ITEM()
RATIONAL_B_SPLINE_SURFACE(((1.,0.333333333333333,0.333333333333333,1.,0.333333333333333,
0.333333333333333,1.),(0.995218480518594,0.331739493506198,0.331739493506198,
0.995218480518594,0.331739493506198,0.331739493506198,0.995218480518594),
(0.995218480518594,0.331739493506198,0.331739493506198,0.995218480518594,
0.331739493506198,0.331739493506198,0.995218480518594),(1.,0.333333333333333,
0.333333333333333,1.,0.333333333333333,0.333333333333333,1.)))
REPRESENTATION_ITEM('')
SURFACE()
);
#128=VERTEX_LOOP('',#317);
#129=VERTEX_LOOP('',#319);
#130=TOROIDAL_SURFACE('',#391,8.206,0.794000000000001);
#131=TOROIDAL_SURFACE('',#409,12.89675,0.8);
#132=TOROIDAL_SURFACE('',#423,16.55,8.);
#133=TOROIDAL_SURFACE('',#424,8.7687,7.2313);
#134=ADVANCED_FACE('',(#171,#172),#159,.F.);
#135=ADVANCED_FACE('',(#173,#174),#160,.F.);
#136=ADVANCED_FACE('',(#175,#176),#161,.T.);
#137=ADVANCED_FACE('',(#177,#178),#162,.T.);
#138=ADVANCED_FACE('',(#179,#180),#130,.T.);
#139=ADVANCED_FACE('',(#181,#182),#163,.T.);
#140=ADVANCED_FACE('',(#183,#184),#127,.T.);
#141=ADVANCED_FACE('',(#185,#186),#164,.F.);
#142=ADVANCED_FACE('',(#187,#188),#165,.T.);
#143=ADVANCED_FACE('',(#189,#190),#166,.F.);
#144=ADVANCED_FACE('',(#191,#192),#100,.T.);
#145=ADVANCED_FACE('',(#98),#95,.F.);
#146=ADVANCED_FACE('',(#193,#194),#167,.T.);
#147=ADVANCED_FACE('',(#195,#196),#101,.T.);
#148=ADVANCED_FACE('',(#197,#198),#168,.T.);
#149=ADVANCED_FACE('',(#199,#200),#131,.F.);
#150=ADVANCED_FACE('',(#201,#202),#169,.T.);
#151=ADVANCED_FACE('',(#203,#204),#102,.T.);
#152=ADVANCED_FACE('',(#205,#206),#96,.F.);
#153=ADVANCED_FACE('',(#207,#208),#170,.T.);
#154=ADVANCED_FACE('',(#209,#210),#103,.T.);
#155=ADVANCED_FACE('',(#211,#212),#104,.T.);
#156=ADVANCED_FACE('',(#213,#214),#132,.F.);
#157=ADVANCED_FACE('',(#215,#216),#133,.T.);
#158=ADVANCED_FACE('',(#99),#97,.T.);
#159=CONICAL_SURFACE('',#382,2.81281535888162,52.0840937014011);
#160=CONICAL_SURFACE('',#385,5.81339370673489,84.9999999999998);
#161=CONICAL_SURFACE('',#387,8.45115580928095,2.99999999999994);
#162=CONICAL_SURFACE('',#389,8.64885820929728,22.9999999999998);
#163=CONICAL_SURFACE('',#392,8.35750234232898,79.0000000000001);
#164=CONICAL_SURFACE('',#395,0.183496557837705,81.9999999999998);
#165=CONICAL_SURFACE('',#396,2.75,81.9999999999999);
#166=CONICAL_SURFACE('',#397,5.7,89.8515471397458);
#167=CONICAL_SURFACE('',#403,12.49675,44.9999999999995);
#168=CONICAL_SURFACE('',#407,12.49675,50.9999999999996);
#169=CONICAL_SURFACE('',#411,12.49675,19.0179518126394);
#170=CONICAL_SURFACE('',#417,16.,44.999999999999);
#171=FACE_BOUND('',#217,.T.);
#172=FACE_BOUND('',#218,.T.);
#173=FACE_BOUND('',#219,.T.);
#174=FACE_BOUND('',#220,.T.);
#175=FACE_BOUND('',#221,.T.);
#176=FACE_BOUND('',#222,.T.);
#177=FACE_BOUND('',#223,.T.);
#178=FACE_BOUND('',#224,.T.);
#179=FACE_BOUND('',#225,.T.);
#180=FACE_BOUND('',#226,.T.);
#181=FACE_BOUND('',#227,.T.);
#182=FACE_BOUND('',#228,.T.);
#183=FACE_BOUND('',#229,.T.);
#184=FACE_BOUND('',#128,.T.);
#185=FACE_BOUND('',#230,.T.);
#186=FACE_BOUND('',#231,.T.);
#187=FACE_BOUND('',#232,.T.);
#188=FACE_BOUND('',#233,.T.);
#189=FACE_BOUND('',#234,.T.);
#190=FACE_BOUND('',#129,.T.);
#191=FACE_BOUND('',#235,.T.);
#192=FACE_BOUND('',#236,.T.);
#193=FACE_BOUND('',#238,.T.);
#194=FACE_BOUND('',#239,.T.);
#195=FACE_BOUND('',#240,.T.);
#196=FACE_BOUND('',#241,.T.);
#197=FACE_BOUND('',#242,.T.);
#198=FACE_BOUND('',#243,.T.);
#199=FACE_BOUND('',#244,.T.);
#200=FACE_BOUND('',#245,.T.);
#201=FACE_BOUND('',#246,.T.);
#202=FACE_BOUND('',#247,.T.);
#203=FACE_BOUND('',#248,.T.);
#204=FACE_BOUND('',#249,.T.);
#205=FACE_BOUND('',#250,.T.);
#206=FACE_BOUND('',#251,.T.);
#207=FACE_BOUND('',#252,.T.);
#208=FACE_BOUND('',#253,.T.);
#209=FACE_BOUND('',#254,.T.);
#210=FACE_BOUND('',#255,.T.);
#211=FACE_BOUND('',#256,.T.);
#212=FACE_BOUND('',#257,.T.);
#213=FACE_BOUND('',#258,.T.);
#214=FACE_BOUND('',#259,.T.);
#215=FACE_BOUND('',#260,.T.);
#216=FACE_BOUND('',#261,.T.);
#217=EDGE_LOOP('',(#263));
#218=EDGE_LOOP('',(#264));
#219=EDGE_LOOP('',(#265));
#220=EDGE_LOOP('',(#266));
#221=EDGE_LOOP('',(#267));
#222=EDGE_LOOP('',(#268));
#223=EDGE_LOOP('',(#269));
#224=EDGE_LOOP('',(#270));
#225=EDGE_LOOP('',(#271));
#226=EDGE_LOOP('',(#272));
#227=EDGE_LOOP('',(#273));
#228=EDGE_LOOP('',(#274));
#229=EDGE_LOOP('',(#275));
#230=EDGE_LOOP('',(#276));
#231=EDGE_LOOP('',(#277));
#232=EDGE_LOOP('',(#278));
#233=EDGE_LOOP('',(#279));
#234=EDGE_LOOP('',(#280));
#235=EDGE_LOOP('',(#281));
#236=EDGE_LOOP('',(#282));
#237=EDGE_LOOP('',(#283));
#238=EDGE_LOOP('',(#284));
#239=EDGE_LOOP('',(#285));
#240=EDGE_LOOP('',(#286));
#241=EDGE_LOOP('',(#287));
#242=EDGE_LOOP('',(#288));
#243=EDGE_LOOP('',(#289));
#244=EDGE_LOOP('',(#290));
#245=EDGE_LOOP('',(#291));
#246=EDGE_LOOP('',(#292));
#247=EDGE_LOOP('',(#293));
#248=EDGE_LOOP('',(#294));
#249=EDGE_LOOP('',(#295));
#250=EDGE_LOOP('',(#296));
#251=EDGE_LOOP('',(#297));
#252=EDGE_LOOP('',(#298));
#253=EDGE_LOOP('',(#299));
#254=EDGE_LOOP('',(#300));
#255=EDGE_LOOP('',(#301));
#256=EDGE_LOOP('',(#302));
#257=EDGE_LOOP('',(#303));
#258=EDGE_LOOP('',(#304));
#259=EDGE_LOOP('',(#305));
#260=EDGE_LOOP('',(#306));
#261=EDGE_LOOP('',(#307));
#262=EDGE_LOOP('',(#308));
#263=ORIENTED_EDGE('',*,*,#334,.T.);
#264=ORIENTED_EDGE('',*,*,#335,.F.);
#265=ORIENTED_EDGE('',*,*,#336,.F.);
#266=ORIENTED_EDGE('',*,*,#337,.F.);
#267=ORIENTED_EDGE('',*,*,#338,.T.);
#268=ORIENTED_EDGE('',*,*,#334,.F.);
#269=ORIENTED_EDGE('',*,*,#339,.T.);
#270=ORIENTED_EDGE('',*,*,#338,.F.);
#271=ORIENTED_EDGE('',*,*,#340,.T.);
#272=ORIENTED_EDGE('',*,*,#339,.F.);
#273=ORIENTED_EDGE('',*,*,#336,.T.);
#274=ORIENTED_EDGE('',*,*,#340,.F.);
#275=ORIENTED_EDGE('',*,*,#341,.F.);
#276=ORIENTED_EDGE('',*,*,#342,.F.);
#277=ORIENTED_EDGE('',*,*,#341,.T.);
#278=ORIENTED_EDGE('',*,*,#337,.T.);
#279=ORIENTED_EDGE('',*,*,#342,.T.);
#280=ORIENTED_EDGE('',*,*,#335,.T.);
#281=ORIENTED_EDGE('',*,*,#343,.F.);
#282=ORIENTED_EDGE('',*,*,#344,.F.);
#283=ORIENTED_EDGE('',*,*,#345,.T.);
#284=ORIENTED_EDGE('',*,*,#345,.F.);
#285=ORIENTED_EDGE('',*,*,#346,.T.);
#286=ORIENTED_EDGE('',*,*,#346,.F.);
#287=ORIENTED_EDGE('',*,*,#347,.T.);
#288=ORIENTED_EDGE('',*,*,#348,.T.);
#289=ORIENTED_EDGE('',*,*,#347,.F.);
#290=ORIENTED_EDGE('',*,*,#348,.F.);
#291=ORIENTED_EDGE('',*,*,#349,.T.);
#292=ORIENTED_EDGE('',*,*,#349,.F.);
#293=ORIENTED_EDGE('',*,*,#350,.T.);
#294=ORIENTED_EDGE('',*,*,#350,.F.);
#295=ORIENTED_EDGE('',*,*,#351,.T.);
#296=ORIENTED_EDGE('',*,*,#351,.F.);
#297=ORIENTED_EDGE('',*,*,#352,.T.);
#298=ORIENTED_EDGE('',*,*,#352,.F.);
#299=ORIENTED_EDGE('',*,*,#353,.T.);
#300=ORIENTED_EDGE('',*,*,#353,.F.);
#301=ORIENTED_EDGE('',*,*,#354,.T.);
#302=ORIENTED_EDGE('',*,*,#355,.F.);
#303=ORIENTED_EDGE('',*,*,#343,.T.);
#304=ORIENTED_EDGE('',*,*,#356,.F.);
#305=ORIENTED_EDGE('',*,*,#355,.T.);
#306=ORIENTED_EDGE('',*,*,#356,.T.);
#307=ORIENTED_EDGE('',*,*,#354,.F.);
#308=ORIENTED_EDGE('',*,*,#344,.T.);
#309=VERTEX_POINT('',#522);
#310=VERTEX_POINT('',#524);
#311=VERTEX_POINT('',#527);
#312=VERTEX_POINT('',#529);
#313=VERTEX_POINT('',#532);
#314=VERTEX_POINT('',#535);
#315=VERTEX_POINT('',#538);
#316=VERTEX_POINT('',#542);
#317=VERTEX_POINT('',#543);
#318=VERTEX_POINT('',#573);
#319=VERTEX_POINT('',#576);
#320=VERTEX_POINT('',#596);
#321=VERTEX_POINT('',#598);
#322=VERTEX_POINT('',#601);
#323=VERTEX_POINT('',#604);
#324=VERTEX_POINT('',#607);
#325=VERTEX_POINT('',#610);
#326=VERTEX_POINT('',#613);
#327=VERTEX_POINT('',#616);
#328=VERTEX_POINT('',#619);
#329=VERTEX_POINT('',#622);
#330=VERTEX_POINT('',#625);
#331=VERTEX_POINT('',#628);
#332=VERTEX_POINT('',#631);
#333=VERTEX_POINT('',#634);
#334=EDGE_CURVE('',#309,#309,#357,.T.);
#335=EDGE_CURVE('',#310,#310,#358,.T.);
#336=EDGE_CURVE('',#311,#311,#359,.T.);
#337=EDGE_CURVE('',#312,#312,#360,.T.);
#338=EDGE_CURVE('',#313,#313,#361,.T.);
#339=EDGE_CURVE('',#314,#314,#362,.T.);
#340=EDGE_CURVE('',#315,#315,#363,.T.);
#341=EDGE_CURVE('',#316,#316,#364,.T.);
#342=EDGE_CURVE('',#318,#318,#365,.T.);
#343=EDGE_CURVE('',#320,#320,#105,.T.);
#344=EDGE_CURVE('',#321,#321,#366,.T.);
#345=EDGE_CURVE('',#322,#322,#367,.T.);
#346=EDGE_CURVE('',#323,#323,#368,.T.);
#347=EDGE_CURVE('',#324,#324,#369,.T.);
#348=EDGE_CURVE('',#325,#325,#370,.T.);
#349=EDGE_CURVE('',#326,#326,#371,.T.);
#350=EDGE_CURVE('',#327,#327,#372,.T.);
#351=EDGE_CURVE('',#328,#328,#373,.T.);
#352=EDGE_CURVE('',#329,#329,#374,.T.);
#353=EDGE_CURVE('',#330,#330,#375,.T.);
#354=EDGE_CURVE('',#331,#331,#376,.T.);
#355=EDGE_CURVE('',#332,#332,#377,.T.);
#356=EDGE_CURVE('',#333,#333,#378,.T.);
#357=CIRCLE('',#380,8.45115580928095);
#358=CIRCLE('',#381,5.47136065982906);
#359=CIRCLE('',#383,5.81339370673489);
#360=CIRCLE('',#384,4.3879200285031);
#361=CIRCLE('',#386,8.64885820929728);
#362=CIRCLE('',#388,8.93688085364124);
#363=CIRCLE('',#390,8.35750234232898);
#364=CIRCLE('',#393,0.183496557837705);
#365=CIRCLE('',#394,2.75);
#366=CIRCLE('',#398,8.55005);
#367=CIRCLE('',#400,11.5);
#368=CIRCLE('',#402,12.49675);
#369=CIRCLE('',#404,12.49675);
#370=CIRCLE('',#406,12.3932936871601);
#371=CIRCLE('',#408,12.1404167817994);
#372=CIRCLE('',#410,12.49675);
#373=CIRCLE('',#412,12.49675);
#374=CIRCLE('',#414,15.8);
#375=CIRCLE('',#416,16.);
#376=CIRCLE('',#418,16.);
#377=CIRCLE('',#420,8.55);
#378=CIRCLE('',#422,12.462994951187);
#379=AXIS2_PLACEMENT_3D('',#520,#426,#427);
#380=AXIS2_PLACEMENT_3D('',#521,#428,#429);
#381=AXIS2_PLACEMENT_3D('',#523,#430,#431);
#382=AXIS2_PLACEMENT_3D('',#525,#432,#433);
#383=AXIS2_PLACEMENT_3D('',#526,#434,#435);
#384=AXIS2_PLACEMENT_3D('',#528,#436,#437);
#385=AXIS2_PLACEMENT_3D('',#530,#438,#439);
#386=AXIS2_PLACEMENT_3D('',#531,#440,#441);
#387=AXIS2_PLACEMENT_3D('',#533,#442,#443);
#388=AXIS2_PLACEMENT_3D('',#534,#444,#445);
#389=AXIS2_PLACEMENT_3D('',#536,#446,#447);
#390=AXIS2_PLACEMENT_3D('',#537,#448,#449);
#391=AXIS2_PLACEMENT_3D('',#539,#450,#451);
#392=AXIS2_PLACEMENT_3D('',#540,#452,#453);
#393=AXIS2_PLACEMENT_3D('',#541,#454,#455);
#394=AXIS2_PLACEMENT_3D('',#572,#456,#457);
#395=AXIS2_PLACEMENT_3D('',#574,#458,#459);
#396=AXIS2_PLACEMENT_3D('',#575,#460,#461);
#397=AXIS2_PLACEMENT_3D('',#577,#462,#463);
#398=AXIS2_PLACEMENT_3D('',#597,#464,#465);
#399=AXIS2_PLACEMENT_3D('',#599,#466,#467);
#400=AXIS2_PLACEMENT_3D('',#600,#468,#469);
#401=AXIS2_PLACEMENT_3D('',#602,#470,#471);
#402=AXIS2_PLACEMENT_3D('',#603,#472,#473);
#403=AXIS2_PLACEMENT_3D('',#605,#474,#475);
#404=AXIS2_PLACEMENT_3D('',#606,#476,#477);
#405=AXIS2_PLACEMENT_3D('',#608,#478,#479);
#406=AXIS2_PLACEMENT_3D('',#609,#480,#481);
#407=AXIS2_PLACEMENT_3D('',#611,#482,#483);
#408=AXIS2_PLACEMENT_3D('',#612,#484,#485);
#409=AXIS2_PLACEMENT_3D('',#614,#486,#487);
#410=AXIS2_PLACEMENT_3D('',#615,#488,#489);
#411=AXIS2_PLACEMENT_3D('',#617,#490,#491);
#412=AXIS2_PLACEMENT_3D('',#618,#492,#493);
#413=AXIS2_PLACEMENT_3D('',#620,#494,#495);
#414=AXIS2_PLACEMENT_3D('',#621,#496,#497);
#415=AXIS2_PLACEMENT_3D('',#623,#498,#499);
#416=AXIS2_PLACEMENT_3D('',#624,#500,#501);
#417=AXIS2_PLACEMENT_3D('',#626,#502,#503);
#418=AXIS2_PLACEMENT_3D('',#627,#504,#505);
#419=AXIS2_PLACEMENT_3D('',#629,#506,#507);
#420=AXIS2_PLACEMENT_3D('',#630,#508,#509);
#421=AXIS2_PLACEMENT_3D('',#632,#510,#511);
#422=AXIS2_PLACEMENT_3D('',#633,#512,#513);
#423=AXIS2_PLACEMENT_3D('',#635,#514,#515);
#424=AXIS2_PLACEMENT_3D('',#636,#516,#517);
#425=AXIS2_PLACEMENT_3D('',#637,#518,#519);
#426=DIRECTION('',(0.,0.,1.));
#427=DIRECTION('',(1.,0.,0.));
#428=DIRECTION('',(0.,0.,1.));
#429=DIRECTION('',(0.,1.,0.));
#430=DIRECTION('',(0.,0.,1.));
#431=DIRECTION('',(0.,-1.,0.));
#432=DIRECTION('',(0.,0.,1.));
#433=DIRECTION('',(0.,1.,3.23583596274398E-017));
#434=DIRECTION('',(0.,0.,1.));
#435=DIRECTION('',(0.,1.,0.));
#436=DIRECTION('',(0.,0.,-1.));
#437=DIRECTION('',(0.,-1.,0.));
#438=DIRECTION('',(0.,0.,-1.));
#439=DIRECTION('',(0.,-1.,6.0676594917082E-018));
#440=DIRECTION('',(0.,0.,1.));
#441=DIRECTION('',(0.,1.,0.));
#442=DIRECTION('',(0.,0.,-1.));
#443=DIRECTION('',(0.,-1.,1.59622435895955E-015));
#444=DIRECTION('',(0.,0.,1.));
#445=DIRECTION('',(0.,1.,0.));
#446=DIRECTION('',(0.,0.,-1.));
#447=DIRECTION('',(0.,-1.,-1.28164666375567E-016));
#448=DIRECTION('',(0.,0.,1.));
#449=DIRECTION('',(0.,1.,0.));
#450=DIRECTION('',(0.,0.,1.));
#451=DIRECTION('',(0.,1.,0.));
#452=DIRECTION('',(0.,0.,1.));
#453=DIRECTION('',(0.,1.,0.));
#454=DIRECTION('',(0.,0.,1.));
#455=DIRECTION('',(0.,1.,0.));
#456=DIRECTION('',(0.,0.,1.));
#457=DIRECTION('',(0.,1.,0.));
#458=DIRECTION('',(0.,0.,-1.));
#459=DIRECTION('',(0.,-1.,-5.85103675601973E-018));
#460=DIRECTION('',(0.,0.,1.));
#461=DIRECTION('',(0.,1.,-3.89928474065234E-018));
#462=DIRECTION('',(0.,0.,1.));
#463=DIRECTION('',(0.,1.,0.));
#464=DIRECTION('',(0.,0.,-1.));
#465=DIRECTION('',(0.,-1.,0.));
#466=DIRECTION('',(0.,0.,1.));
#467=DIRECTION('',(0.,1.,0.));
#468=DIRECTION('',(0.,0.,1.));
#469=DIRECTION('',(0.,1.,0.));
#470=DIRECTION('',(0.,0.,-1.));
#471=DIRECTION('',(0.,-1.,0.));
#472=DIRECTION('',(0.,0.,1.));
#473=DIRECTION('',(0.,1.,0.));
#474=DIRECTION('',(0.,0.,-1.));
#475=DIRECTION('',(0.,-1.,-2.74130021806286E-017));
#476=DIRECTION('',(0.,0.,1.));
#477=DIRECTION('',(0.,1.,0.));
#478=DIRECTION('',(0.,0.,1.));
#479=DIRECTION('',(0.,1.,0.));
#480=DIRECTION('',(0.,0.,1.));
#481=DIRECTION('',(0.,1.,0.));
#482=DIRECTION('',(0.,0.,1.));
#483=DIRECTION('',(0.,1.,-6.67525521895342E-017));
#484=DIRECTION('',(0.,0.,1.));
#485=DIRECTION('',(0.,1.,0.));
#486=DIRECTION('',(0.,0.,1.));
#487=DIRECTION('',(0.,1.,0.));
#488=DIRECTION('',(0.,0.,1.));
#489=DIRECTION('',(0.,1.,0.));
#490=DIRECTION('',(0.,0.,-1.));
#491=DIRECTION('',(0.,-1.,7.77086469203575E-017));
#492=DIRECTION('',(0.,0.,1.));
#493=DIRECTION('',(0.,1.,0.));
#494=DIRECTION('',(0.,0.,1.));
#495=DIRECTION('',(0.,1.,0.));
#496=DIRECTION('',(0.,0.,1.));
#497=DIRECTION('',(0.,1.,0.));
#498=DIRECTION('',(0.,0.,-1.));
#499=DIRECTION('',(0.,-1.,0.));
#500=DIRECTION('',(0.,0.,1.));
#501=DIRECTION('',(0.,1.,0.));
#502=DIRECTION('',(0.,0.,-1.));
#503=DIRECTION('',(0.,-1.,-5.46369598732871E-017));
#504=DIRECTION('',(0.,0.,1.));
#505=DIRECTION('',(0.,1.,0.));
#506=DIRECTION('',(0.,0.,1.));
#507=DIRECTION('',(0.,1.,0.));
#508=DIRECTION('',(0.,0.,1.));
#509=DIRECTION('',(0.,1.,0.));
#510=DIRECTION('',(0.,0.,1.));
#511=DIRECTION('',(0.,1.,0.));
#512=DIRECTION('',(0.,0.,1.));
#513=DIRECTION('',(0.,1.,0.));
#514=DIRECTION('',(0.,0.,1.));
#515=DIRECTION('',(0.,1.,0.));
#516=DIRECTION('',(0.,0.,1.));
#517=DIRECTION('',(0.,1.,0.));
#518=DIRECTION('',(0.,0.,-1.));
#519=DIRECTION('',(0.,-1.,0.));
#520=CARTESIAN_POINT('',(0.,0.,0.));
#521=CARTESIAN_POINT('',(0.,0.,-66.8594156699814));
#522=CARTESIAN_POINT('',(0.,8.45115580928095,-66.8594156699814));
#523=CARTESIAN_POINT('',(0.,0.,-69.1804517667721));
#524=CARTESIAN_POINT('',(0.,-5.47136065982906,-69.1804517667721));
#525=CARTESIAN_POINT('',(0.,0.,-71.2512584158759));
#526=CARTESIAN_POINT('',(0.,0.,-72.8945181390182));
#527=CARTESIAN_POINT('',(0.,5.81339370673489,-72.8945181390182));
#528=CARTESIAN_POINT('',(0.,0.,-72.7698053520183));
#529=CARTESIAN_POINT('',(0.,-4.3879200285031,-72.7698053520183));
#530=CARTESIAN_POINT('',(0.,0.,-72.8945181390182));
#531=CARTESIAN_POINT('',(0.,0.,-70.631802188185));
#532=CARTESIAN_POINT('',(0.,8.64885820929728,-70.631802188185));
#533=CARTESIAN_POINT('',(0.,0.,-66.8594156699814));
#534=CARTESIAN_POINT('',(0.,0.,-71.3103410162736));
#535=CARTESIAN_POINT('',(0.,8.93688085364124,-71.3103410162736));
#536=CARTESIAN_POINT('',(0.,0.,-70.631802188185));
#537=CARTESIAN_POINT('',(0.,0.,-72.3999935159515));
#538=CARTESIAN_POINT('',(0.,8.35750234232898,-72.3999935159515));
#539=CARTESIAN_POINT('',(0.,0.,-71.6205815322941));
#540=CARTESIAN_POINT('',(0.,0.,-72.3999935159515));
#541=CARTESIAN_POINT('',(0.,0.,-72.6393014639719));
#542=CARTESIAN_POINT('',(0.,0.183496557837705,-72.6393014639719));
#543=CARTESIAN_POINT('',(1.56603486662328E-014,1.77635683940025E-015,-72.5905921739745));
#544=CARTESIAN_POINT('',(0.,0.183496557837704,-72.6393014639719));
#545=CARTESIAN_POINT('',(-0.366993115675409,0.183496557837704,-72.6393014639719));
#546=CARTESIAN_POINT('',(-0.366993115675409,-0.183496557837704,-72.6393014639719));
#547=CARTESIAN_POINT('',(0.,-0.183496557837704,-72.6393014639719));
#548=CARTESIAN_POINT('',(0.366993115675409,-0.183496557837704,-72.6393014639719));
#549=CARTESIAN_POINT('',(0.366993115675409,0.183496557837704,-72.6393014639719));
#550=CARTESIAN_POINT('',(0.,0.183496557837704,-72.6393014639719));
#551=CARTESIAN_POINT('',(0.,0.120527519763232,-72.6304517428005));
#552=CARTESIAN_POINT('',(-0.241055039526463,0.120527519763232,-72.6304517428005));
#553=CARTESIAN_POINT('',(-0.241055039526463,-0.120527519763232,-72.6304517428005));
#554=CARTESIAN_POINT('',(0.,-0.120527519763232,-72.6304517428005));
#555=CARTESIAN_POINT('',(0.241055039526463,-0.120527519763232,-72.6304517428005));
#556=CARTESIAN_POINT('',(0.241055039526463,0.120527519763232,-72.6304517428005));
#557=CARTESIAN_POINT('',(0.,0.120527519763232,-72.6304517428005));
#558=CARTESIAN_POINT('',(0.,0.0590681312203631,-72.6141373049992));
#559=CARTESIAN_POINT('',(-0.118136262440726,0.0590681312203631,-72.6141373049992));
#560=CARTESIAN_POINT('',(-0.118136262440726,-0.0590681312203631,-72.6141373049992));
#561=CARTESIAN_POINT('',(0.,-0.0590681312203631,-72.6141373049992));
#562=CARTESIAN_POINT('',(0.118136262440726,-0.0590681312203631,-72.6141373049992));
#563=CARTESIAN_POINT('',(0.118136262440726,0.0590681312203631,-72.6141373049992));
#564=CARTESIAN_POINT('',(0.,0.0590681312203631,-72.6141373049992));
#565=CARTESIAN_POINT('',(0.,-2.38524477946811E-015,-72.5905921739745));
#566=CARTESIAN_POINT('',(4.77048955893622E-015,-2.38524477946811E-015,-72.5905921739745));
#567=CARTESIAN_POINT('',(4.77048955893622E-015,2.38524477946811E-015,-72.5905921739745));
#568=CARTESIAN_POINT('',(0.,2.38524477946811E-015,-72.5905921739745));
#569=CARTESIAN_POINT('',(-4.77048955893622E-015,2.38524477946811E-015,-72.5905921739745));
#570=CARTESIAN_POINT('',(-4.77048955893622E-015,-2.38524477946811E-015,-72.5905921739745));
#571=CARTESIAN_POINT('',(0.,-2.38524477946811E-015,-72.5905921739745));
#572=CARTESIAN_POINT('',(0.,0.,-72.9999999999999));
#573=CARTESIAN_POINT('',(0.,2.75,-72.9999999999999));
#574=CARTESIAN_POINT('',(0.,0.,-72.6393014639719));
#575=CARTESIAN_POINT('',(0.,0.,-72.9999999999999));
#576=CARTESIAN_POINT('',(1.5673466696741E-014,8.88178419700125E-016,-69.1946280457917));
#577=CARTESIAN_POINT('',(0.,0.,-69.1798593629291));
#578=CARTESIAN_POINT('',(-8.55,2.23838476568273,-58.7999999999999));
#579=CARTESIAN_POINT('',(-8.55,-2.23838476568273,-58.7999999999999));
#580=CARTESIAN_POINT('',(-7.6285400258639,-4.46298593242606,-58.7999999999999));
#581=CARTESIAN_POINT('',(-4.46298593242606,-7.6285400258639,-58.7999999999999));
#582=CARTESIAN_POINT('',(-2.23838476568273,-8.55,-58.7999999999999));
#583=CARTESIAN_POINT('',(2.23838476568273,-8.55,-58.7999999999999));
#584=CARTESIAN_POINT('',(4.46298593242606,-7.6285400258639,-58.7999999999999));
#585=CARTESIAN_POINT('',(7.6285400258639,-4.46298593242606,-58.7999999999999));
#586=CARTESIAN_POINT('',(8.55,-2.23838476568273,-58.7999999999999));
#587=CARTESIAN_POINT('',(8.55,2.23838476568273,-58.7999999999999));
#588=CARTESIAN_POINT('',(7.6285400258639,4.46298593242606,-58.7999999999999));
#589=CARTESIAN_POINT('',(4.46298593242607,7.6285400258639,-58.7999999999999));
#590=CARTESIAN_POINT('',(2.23838476568273,8.55,-58.7999999999999));
#591=CARTESIAN_POINT('',(-2.23838476568272,8.55,-58.7999999999999));
#592=CARTESIAN_POINT('',(-4.46298593242606,7.6285400258639,-58.7999999999999));
#593=CARTESIAN_POINT('',(-7.6285400258639,4.46298593242607,-58.7999999999999));
#594=CARTESIAN_POINT('',(-8.55,2.23838476568273,-58.7999999999999));
#595=CARTESIAN_POINT('',(-8.55,-2.23838476568273,-58.7999999999999));
#596=CARTESIAN_POINT('',(-8.550025,5.23538037443992E-016,-58.7999999999999));
#597=CARTESIAN_POINT('',(0.,0.,-71.7999999999999));
#598=CARTESIAN_POINT('',(0.,-8.55005,-71.7999999999999));
#599=CARTESIAN_POINT('',(0.,0.,-72.7999999999999));
#600=CARTESIAN_POINT('',(0.,0.,56.0000000000001));
#601=CARTESIAN_POINT('',(0.,11.5,56.0000000000001));
#602=CARTESIAN_POINT('',(-11.5,0.,56.0000000000001));
#603=CARTESIAN_POINT('',(0.,0.,55.0032500000001));
#604=CARTESIAN_POINT('',(0.,12.49675,55.0032500000001));
#605=CARTESIAN_POINT('',(0.,0.,55.0032500000001));
#606=CARTESIAN_POINT('',(0.,0.,54.6032500000001));
#607=CARTESIAN_POINT('',(0.,12.49675,54.6032500000001));
#608=CARTESIAN_POINT('',(0.,0.,-72.7999999999999));
#609=CARTESIAN_POINT('',(0.,0.,54.5194727297291));
#610=CARTESIAN_POINT('',(0.,12.3932936871601,54.5194727297291));
#611=CARTESIAN_POINT('',(0.,0.,54.6032500000001));
#612=CARTESIAN_POINT('',(0.,0.,53.6370644512152));
#613=CARTESIAN_POINT('',(0.,12.1404167817994,53.6370644512152));
#614=CARTESIAN_POINT('',(0.,0.,53.8977559605635));
#615=CARTESIAN_POINT('',(0.,0.,52.6032500000001));
#616=CARTESIAN_POINT('',(0.,12.49675,52.6032500000001));
#617=CARTESIAN_POINT('',(0.,0.,52.6032500000001));
#618=CARTESIAN_POINT('',(0.,0.,8.32667268468867E-014));
#619=CARTESIAN_POINT('',(0.,12.49675,8.32667268468867E-014));
#620=CARTESIAN_POINT('',(0.,0.,-72.7999999999999));
#621=CARTESIAN_POINT('',(0.,0.,8.32667268468867E-014));
#622=CARTESIAN_POINT('',(0.,15.8,8.32667268468867E-014));
#623=CARTESIAN_POINT('',(-15.8,0.,8.32667268468867E-014));
#624=CARTESIAN_POINT('',(0.,0.,-0.199999999999922));
#625=CARTESIAN_POINT('',(0.,16.,-0.199999999999922));
#626=CARTESIAN_POINT('',(0.,0.,-0.199999999999922));
#627=CARTESIAN_POINT('',(0.,0.,-4.99812046115713));
#628=CARTESIAN_POINT('',(0.,16.,-4.99812046115713));
#629=CARTESIAN_POINT('',(0.,0.,-72.7999999999999));
#630=CARTESIAN_POINT('',(0.,0.,-18.0917780861338));
#631=CARTESIAN_POINT('',(0.,8.55,-18.0917780861338));
#632=CARTESIAN_POINT('',(0.,0.,-72.7999999999999));
#633=CARTESIAN_POINT('',(0.,0.,-11.2145410151163));
#634=CARTESIAN_POINT('',(0.,12.462994951187,-11.2145410151163));
#635=CARTESIAN_POINT('',(0.,0.,-18.0917780861338));
#636=CARTESIAN_POINT('',(0.,0.,-4.99812046115713));
#637=CARTESIAN_POINT('',(0.,0.,-71.7999999999999));
#638=MECHANICAL_DESIGN_GEOMETRIC_PRESENTATION_REPRESENTATION('',(#107,#108),
#639);
#639=(
GEOMETRIC_REPRESENTATION_CONTEXT(3)
GLOBAL_UNCERTAINTY_ASSIGNED_CONTEXT((#640))
GLOBAL_UNIT_ASSIGNED_CONTEXT((#646,#642,#641))
REPRESENTATION_CONTEXT('5873_2_3D','TOP_LEVEL_ASSEMBLY_PART')
);
#640=UNCERTAINTY_MEASURE_WITH_UNIT(LENGTH_MEASURE(0.0508),#646,
'DISTANCE_ACCURACY_VALUE','Maximum Tolerance applied to model');
#641=(
NAMED_UNIT(*)
SI_UNIT($,.STERADIAN.)
SOLID_ANGLE_UNIT()
);
#642=(
CONVERSION_BASED_UNIT('DEGREE',#644)
NAMED_UNIT(#643)
PLANE_ANGLE_UNIT()
);
#643=DIMENSIONAL_EXPONENTS(0.,0.,0.,0.,0.,0.,0.);
#644=PLANE_ANGLE_MEASURE_WITH_UNIT(PLANE_ANGLE_MEASURE(0.0174532925),#645);
#645=(
NAMED_UNIT(*)
PLANE_ANGLE_UNIT()
SI_UNIT($,.RADIAN.)
);
#646=(
LENGTH_UNIT()
NAMED_UNIT(*)
SI_UNIT(.MILLI.,.METRE.)
);
ENDSEC;
END-ISO-10303-21;
