ISO-10303-21;
HEADER;
/* Generated by software containing ST-Developer
 * from STEP Tools, Inc. (www.steptools.com) 
 */
/* OPTION: using custom schema-name function */

FILE_DESCRIPTION(
/* description */ (''),
/* implementation_level */ '2;1');

FILE_NAME(
/* name */ '2645_1_3d.stp',
/* time_stamp */ '2017-07-05T09:40:26+02:00',
/* author */ (''),
/* organization */ ('SMS'),
/* preprocessor_version */ 'ST-DEVELOPER v15',
/* originating_system */ 'SIEMENS PLM Software NX 8.5',
/* authorisation */ '');

FILE_SCHEMA (('AUTOMOTIVE_DESIGN { 1 0 10303 214 3 1 1 1 }'));
ENDSEC;

DATA;
#10=CONSTRUCTIVE_GEOMETRY_REPRESENTATION_RELATIONSHIP(
'supplemental geometry','',#26,#11);
#11=CONSTRUCTIVE_GEOMETRY_REPRESENTATION('supplemental geometry',(#119,
#120,#121),#201);
#12=GEOMETRICALLY_BOUNDED_WIREFRAME_SHAPE_REPRESENTATION(
'2645_1_3D-None',(#27),#201);
#13=SHAPE_REPRESENTATION_RELATIONSHIP('None',
'relationship between 2645_1_3D-None and 2645_1_3D-None',#26,#15);
#14=SHAPE_REPRESENTATION_RELATIONSHIP('None',
'relationship between 2645_1_3D-None and 2645_1_3D-None',#26,#12);
#15=ADVANCED_BREP_SHAPE_REPRESENTATION('2645_1_3D-None',(#33),#201);
#16=SHAPE_DEFINITION_REPRESENTATION(#17,#26);
#17=PRODUCT_DEFINITION_SHAPE('','',#18);
#18=PRODUCT_DEFINITION(' ','',#20,#19);
#19=PRODUCT_DEFINITION_CONTEXT('part definition',#25,'design');
#20=PRODUCT_DEFINITION_FORMATION_WITH_SPECIFIED_SOURCE(' ',' ',#22,
 .NOT_KNOWN.);
#21=PRODUCT_RELATED_PRODUCT_CATEGORY('part','',(#22));
#22=PRODUCT('2645_1_3D','2645_1_3D',' ',(#23));
#23=PRODUCT_CONTEXT(' ',#25,'mechanical');
#24=APPLICATION_PROTOCOL_DEFINITION('international standard',
'automotive_design',2010,#25);
#25=APPLICATION_CONTEXT(
'core data for automotive mechanical design processes');
#26=SHAPE_REPRESENTATION('2645_1_3D-None',(#118),#201);
#27=GEOMETRIC_CURVE_SET('None',(#117));
#28=SURFACE_STYLE_USAGE(.BOTH.,#29);
#29=SURFACE_SIDE_STYLE('',(#30));
#30=SURFACE_STYLE_FILL_AREA(#31);
#31=FILL_AREA_STYLE('',(#32));
#32=FILL_AREA_STYLE_COLOUR('',#96);
#33=MANIFOLD_SOLID_BREP('CUT',#34);
#34=CLOSED_SHELL('',(#41,#42,#43,#44,#45,#46));
#35=FACE_OUTER_BOUND('',#66,.T.);
#36=VERTEX_LOOP('',#83);
#37=CONICAL_SURFACE('',#128,4.003467,45.);
#38=CONICAL_SURFACE('',#129,8.,73.0975467647745);
#39=PLANE('',#126);
#40=PLANE('',#131);
#41=ADVANCED_FACE('',(#49,#50),#47,.T.);
#42=ADVANCED_FACE('',(#51,#52),#39,.T.);
#43=ADVANCED_FACE('',(#53,#54),#37,.T.);
#44=ADVANCED_FACE('',(#55,#56),#38,.T.);
#45=ADVANCED_FACE('',(#35),#40,.T.);
#46=ADVANCED_FACE('',(#57,#58),#48,.T.);
#47=CYLINDRICAL_SURFACE('',#124,8.);
#48=CYLINDRICAL_SURFACE('',#132,1.85);
#49=FACE_BOUND('',#59,.T.);
#50=FACE_BOUND('',#60,.T.);
#51=FACE_BOUND('',#61,.T.);
#52=FACE_BOUND('',#62,.T.);
#53=FACE_BOUND('',#63,.T.);
#54=FACE_BOUND('',#64,.T.);
#55=FACE_BOUND('',#36,.T.);
#56=FACE_BOUND('',#65,.T.);
#57=FACE_BOUND('',#67,.T.);
#58=FACE_BOUND('',#68,.T.);
#59=EDGE_LOOP('',(#69));
#60=EDGE_LOOP('',(#70));
#61=EDGE_LOOP('',(#71));
#62=EDGE_LOOP('',(#72));
#63=EDGE_LOOP('',(#73));
#64=EDGE_LOOP('',(#74));
#65=EDGE_LOOP('',(#75));
#66=EDGE_LOOP('',(#76));
#67=EDGE_LOOP('',(#77));
#68=EDGE_LOOP('',(#78));
#69=ORIENTED_EDGE('',*,*,#85,.F.);
#70=ORIENTED_EDGE('',*,*,#86,.T.);
#71=ORIENTED_EDGE('',*,*,#87,.F.);
#72=ORIENTED_EDGE('',*,*,#85,.T.);
#73=ORIENTED_EDGE('',*,*,#88,.F.);
#74=ORIENTED_EDGE('',*,*,#86,.F.);
#75=ORIENTED_EDGE('',*,*,#88,.T.);
#76=ORIENTED_EDGE('',*,*,#89,.T.);
#77=ORIENTED_EDGE('',*,*,#87,.T.);
#78=ORIENTED_EDGE('',*,*,#89,.F.);
#79=VERTEX_POINT('',#184);
#80=VERTEX_POINT('',#186);
#81=VERTEX_POINT('',#189);
#82=VERTEX_POINT('',#192);
#83=VERTEX_POINT('',#194);
#84=VERTEX_POINT('',#197);
#85=EDGE_CURVE('',#79,#79,#90,.T.);
#86=EDGE_CURVE('',#80,#80,#91,.T.);
#87=EDGE_CURVE('',#81,#81,#92,.T.);
#88=EDGE_CURVE('',#82,#82,#93,.T.);
#89=EDGE_CURVE('',#84,#84,#94,.T.);
#90=CIRCLE('',#122,8.);
#91=CIRCLE('',#123,8.);
#92=CIRCLE('',#125,1.85);
#93=CIRCLE('',#127,7.18754686624625);
#94=CIRCLE('',#130,1.85);
#95=COLOUR_RGB('Strong Emerald',0.,0.803921568627451,0.525490196078431);
#96=COLOUR_RGB('Light Gray',0.8,0.8,0.8);
#97=PRESENTATION_LAYER_ASSIGNMENT('1','Layer 1',(#117,#119,#120,#121,#33));
#98=STYLED_ITEM('',(#103),#117);
#99=STYLED_ITEM('',(#104),#119);
#100=STYLED_ITEM('',(#105),#120);
#101=STYLED_ITEM('',(#106),#121);
#102=STYLED_ITEM('',(#107),#33);
#103=PRESENTATION_STYLE_ASSIGNMENT((#108));
#104=PRESENTATION_STYLE_ASSIGNMENT((#109));
#105=PRESENTATION_STYLE_ASSIGNMENT((#110));
#106=PRESENTATION_STYLE_ASSIGNMENT((#111));
#107=PRESENTATION_STYLE_ASSIGNMENT((#28));
#108=CURVE_STYLE('',#113,POSITIVE_LENGTH_MEASURE(0.18),#112);
#109=CURVE_STYLE('',#114,POSITIVE_LENGTH_MEASURE(0.13),#95);
#110=CURVE_STYLE('',#115,POSITIVE_LENGTH_MEASURE(0.13),#95);
#111=CURVE_STYLE('',#116,POSITIVE_LENGTH_MEASURE(0.13),#95);
#112=DRAUGHTING_PRE_DEFINED_COLOUR('blue');
#113=DRAUGHTING_PRE_DEFINED_CURVE_FONT('continuous');
#114=DRAUGHTING_PRE_DEFINED_CURVE_FONT('continuous');
#115=DRAUGHTING_PRE_DEFINED_CURVE_FONT('continuous');
#116=DRAUGHTING_PRE_DEFINED_CURVE_FONT('continuous');
#117=B_SPLINE_CURVE_WITH_KNOTS('CUTTING EDGE LINE',3,(#164,#165,#166,#167,
#168,#169,#170,#171,#172,#173,#174,#175,#176,#177,#178,#179),
 .UNSPECIFIED.,.F.,.F.,(4,3,3,3,3,4),(0.,0.237638995742526,0.534687740420683,
0.75783251870431,0.791962891925511,1.),.UNSPECIFIED.);
#118=AXIS2_PLACEMENT_3D('',#163,#133,#134);
#119=AXIS2_PLACEMENT_3D('MCS',#180,#135,#136);
#120=AXIS2_PLACEMENT_3D('PCS',#181,#137,#138);
#121=AXIS2_PLACEMENT_3D('CIP',#182,#139,#140);
#122=AXIS2_PLACEMENT_3D('',#183,#141,#142);
#123=AXIS2_PLACEMENT_3D('',#185,#143,#144);
#124=AXIS2_PLACEMENT_3D('',#187,#145,#146);
#125=AXIS2_PLACEMENT_3D('',#188,#147,#148);
#126=AXIS2_PLACEMENT_3D('',#190,#149,#150);
#127=AXIS2_PLACEMENT_3D('',#191,#151,#152);
#128=AXIS2_PLACEMENT_3D('',#193,#153,#154);
#129=AXIS2_PLACEMENT_3D('',#195,#155,#156);
#130=AXIS2_PLACEMENT_3D('',#196,#157,#158);
#131=AXIS2_PLACEMENT_3D('',#198,#159,#160);
#132=AXIS2_PLACEMENT_3D('',#199,#161,#162);
#133=DIRECTION('',(0.,0.,1.));
#134=DIRECTION('',(1.,0.,0.));
#135=DIRECTION('',(0.,0.,1.));
#136=DIRECTION('',(1.,0.,0.));
#137=DIRECTION('',(0.,0.,1.));
#138=DIRECTION('',(1.,0.,0.));
#139=DIRECTION('',(0.,0.,1.));
#140=DIRECTION('',(1.,0.,0.));
#141=DIRECTION('',(0.,1.20736753927986E-015,1.));
#142=DIRECTION('',(0.,-1.,1.20736753927986E-015));
#143=DIRECTION('',(0.,1.20736753927986E-015,1.));
#144=DIRECTION('',(0.,-1.,1.19262238973405E-015));
#145=DIRECTION('',(0.,1.20736753927986E-015,1.));
#146=DIRECTION('',(0.,-1.,1.20736753927986E-015));
#147=DIRECTION('',(0.,0.,1.));
#148=DIRECTION('',(-1.,0.,0.));
#149=DIRECTION('',(0.,1.20736753927986E-015,1.));
#150=DIRECTION('',(0.,-1.,1.20736753927986E-015));
#151=DIRECTION('',(0.,-1.20736753927986E-015,-1.));
#152=DIRECTION('',(0.,1.,-1.20675628852127E-015));
#153=DIRECTION('',(0.,1.20736753927986E-015,1.));
#154=DIRECTION('',(0.,-1.,1.20600876991973E-015));
#155=DIRECTION('',(0.,1.20736753927986E-015,1.));
#156=DIRECTION('',(0.,-1.,1.20341252451266E-015));
#157=DIRECTION('',(0.,1.20736753927986E-015,1.));
#158=DIRECTION('',(0.,-1.,1.4065325480893E-015));
#159=DIRECTION('',(0.,1.20736753927986E-015,1.));
#160=DIRECTION('',(0.,-1.,1.20736753927986E-015));
#161=DIRECTION('',(0.,1.20736753927986E-015,1.));
#162=DIRECTION('',(0.,-1.,1.20736753927986E-015));
#163=CARTESIAN_POINT('',(0.,0.,0.));
#164=CARTESIAN_POINT('',(8.,0.,-1.00583809868562E-029));
#165=CARTESIAN_POINT('',(5.33333333333333,0.,-1.00583809868562E-029));
#166=CARTESIAN_POINT('',(2.66666666666667,0.,-1.00583809868562E-029));
#167=CARTESIAN_POINT('',(0.,0.,-1.00583809868562E-029));
#168=CARTESIAN_POINT('',(0.,0.,-3.33333333333333));
#169=CARTESIAN_POINT('',(0.,0.,-6.66666666666667));
#170=CARTESIAN_POINT('',(0.,0.,-10.));
#171=CARTESIAN_POINT('',(2.39584895541542,0.,-9.27197337791792));
#172=CARTESIAN_POINT('',(4.79169791083083,0.,-8.54394675583584));
#173=CARTESIAN_POINT('',(7.18754686624625,0.,-7.81592013375375));
#174=CARTESIAN_POINT('',(7.4583645774975,0.,-7.54510242250251));
#175=CARTESIAN_POINT('',(7.72918228874875,0.,-7.27428471125125));
#176=CARTESIAN_POINT('',(8.,0.,-7.003467));
#177=CARTESIAN_POINT('',(8.,-5.63717247881179E-015,-4.668978));
#178=CARTESIAN_POINT('',(8.,-2.8185862394059E-015,-2.334489));
#179=CARTESIAN_POINT('',(8.,0.,0.));
#180=CARTESIAN_POINT('',(0.,0.,0.));
#181=CARTESIAN_POINT('',(0.,0.,0.));
#182=CARTESIAN_POINT('',(0.,0.,-10.));
#183=CARTESIAN_POINT('',(0.,-1.20278974363509E-044,-9.96208448963686E-030));
#184=CARTESIAN_POINT('',(0.,-8.,9.65894031423885E-015));
#185=CARTESIAN_POINT('',(0.,-8.45575871821769E-015,-7.003467));
#186=CARTESIAN_POINT('',(0.,-8.00000000000001,-7.00346699999999));
#187=CARTESIAN_POINT('',(0.,0.,0.));
#188=CARTESIAN_POINT('',(0.,0.,0.));
#189=CARTESIAN_POINT('',(-1.85,0.,0.));
#190=CARTESIAN_POINT('',(1.85,-8.33083602103102E-015,0.));
#191=CARTESIAN_POINT('',(0.,-9.43668825909816E-015,-7.81592013375375));
#192=CARTESIAN_POINT('',(0.,7.18754686624624,-7.81592013375376));
#193=CARTESIAN_POINT('',(0.,-1.32810429320784E-014,-11.));
#194=CARTESIAN_POINT('',(0.,0.,-10.));
#195=CARTESIAN_POINT('',(0.,-9.13861319951081E-015,-7.56904));
#196=CARTESIAN_POINT('',(0.,8.33083602103102E-015,6.9));
#197=CARTESIAN_POINT('',(0.,-1.84999999999999,6.9));
#198=CARTESIAN_POINT('',(0.,2.2574026937035E-030,6.9));
#199=CARTESIAN_POINT('',(0.,0.,0.));
#200=MECHANICAL_DESIGN_GEOMETRIC_PRESENTATION_REPRESENTATION('',(#98,#99,
#100,#101,#102),#201);
#201=(
GEOMETRIC_REPRESENTATION_CONTEXT(3)
GLOBAL_UNCERTAINTY_ASSIGNED_CONTEXT((#202))
GLOBAL_UNIT_ASSIGNED_CONTEXT((#208,#204,#203))
REPRESENTATION_CONTEXT('2645_1_3d','TOP_LEVEL_ASSEMBLY_PART')
);
#202=UNCERTAINTY_MEASURE_WITH_UNIT(LENGTH_MEASURE(2.E-005),#208,
'DISTANCE_ACCURACY_VALUE','Maximum Tolerance applied to model');
#203=(
NAMED_UNIT(*)
SI_UNIT($,.STERADIAN.)
SOLID_ANGLE_UNIT()
);
#204=(
CONVERSION_BASED_UNIT('DEGREE',#206)
NAMED_UNIT(#205)
PLANE_ANGLE_UNIT()
);
#205=DIMENSIONAL_EXPONENTS(0.,0.,0.,0.,0.,0.,0.);
#206=PLANE_ANGLE_MEASURE_WITH_UNIT(PLANE_ANGLE_MEASURE(0.0174532925),#207);
#207=(
NAMED_UNIT(*)
PLANE_ANGLE_UNIT()
SI_UNIT($,.RADIAN.)
);
#208=(
LENGTH_UNIT()
NAMED_UNIT(*)
SI_UNIT(.MILLI.,.METRE.)
);
ENDSEC;
END-ISO-10303-21;
