ISO-10303-21;
HEADER;
/* Generated by software containing ST-Developer
 * from STEP Tools, Inc. (www.steptools.com) 
 */
/* OPTION: using custom schema-name function */

FILE_DESCRIPTION(
/* description */ (''),
/* implementation_level */ '2;1');

FILE_NAME(
/* name */ '8964_1_3d.stp',
/* time_stamp */ '2018-04-20T08:05:07+02:00',
/* author */ (''),
/* organization */ ('SMS'),
/* preprocessor_version */ 'ST-DEVELOPER v15',
/* originating_system */ 'SIEMENS PLM Software NX 8.5',
/* authorisation */ '');

FILE_SCHEMA (('AUTOMOTIVE_DESIGN { 1 0 10303 214 3 1 1 1 }'));
ENDSEC;

DATA;
#10=CONSTRUCTIVE_GEOMETRY_REPRESENTATION_RELATIONSHIP(
'supplemental geometry','',#26,#11);
#11=CONSTRUCTIVE_GEOMETRY_REPRESENTATION('supplemental geometry',(#108,
#109,#110),#178);
#12=GEOMETRICALLY_BOUNDED_WIREFRAME_SHAPE_REPRESENTATION(
'8964_1_3D-None',(#27),#178);
#13=SHAPE_REPRESENTATION_RELATIONSHIP('None',
'relationship between 8964_1_3D-None and 8964_1_3D-None',#26,#15);
#14=SHAPE_REPRESENTATION_RELATIONSHIP('None',
'relationship between 8964_1_3D-None and 8964_1_3D-None',#26,#12);
#15=ADVANCED_BREP_SHAPE_REPRESENTATION('8964_1_3D-None',(#33),#178);
#16=SHAPE_DEFINITION_REPRESENTATION(#17,#26);
#17=PRODUCT_DEFINITION_SHAPE('','',#18);
#18=PRODUCT_DEFINITION(' ','',#20,#19);
#19=PRODUCT_DEFINITION_CONTEXT('part definition',#25,'design');
#20=PRODUCT_DEFINITION_FORMATION_WITH_SPECIFIED_SOURCE(' ',' ',#22,
 .NOT_KNOWN.);
#21=PRODUCT_RELATED_PRODUCT_CATEGORY('part','',(#22));
#22=PRODUCT('8964_1_3D','8964_1_3D',' ',(#23));
#23=PRODUCT_CONTEXT(' ',#25,'mechanical');
#24=APPLICATION_PROTOCOL_DEFINITION('international standard',
'automotive_design',2010,#25);
#25=APPLICATION_CONTEXT(
'core data for automotive mechanical design processes');
#26=SHAPE_REPRESENTATION('8964_1_3D-None',(#107),#178);
#27=GEOMETRIC_CURVE_SET('None',(#106));
#28=SURFACE_STYLE_USAGE(.BOTH.,#29);
#29=SURFACE_SIDE_STYLE('',(#30));
#30=SURFACE_STYLE_FILL_AREA(#31);
#31=FILL_AREA_STYLE('',(#32));
#32=FILL_AREA_STYLE_COLOUR('',#85);
#33=MANIFOLD_SOLID_BREP('CUT',#34);
#34=CLOSED_SHELL('',(#40,#41,#42,#43,#44));
#35=FACE_OUTER_BOUND('',#53,.T.);
#36=PLANE('',#116);
#37=PLANE('',#119);
#38=CYLINDRICAL_SURFACE('',#114,6.25);
#39=CYLINDRICAL_SURFACE('',#118,1.3);
#40=ADVANCED_FACE('',(#70,#71),#45,.T.);
#41=ADVANCED_FACE('',(#72,#73),#38,.T.);
#42=ADVANCED_FACE('',(#74,#75),#36,.F.);
#43=ADVANCED_FACE('',(#76,#77),#39,.T.);
#44=ADVANCED_FACE('',(#35),#37,.F.);
#45=CONICAL_SURFACE('',#112,6.25,77.8560611025711);
#46=EDGE_LOOP('',(#54));
#47=EDGE_LOOP('',(#55));
#48=EDGE_LOOP('',(#56));
#49=EDGE_LOOP('',(#57));
#50=EDGE_LOOP('',(#58));
#51=EDGE_LOOP('',(#59));
#52=EDGE_LOOP('',(#60));
#53=EDGE_LOOP('',(#61));
#54=ORIENTED_EDGE('',*,*,#62,.F.);
#55=ORIENTED_EDGE('',*,*,#62,.T.);
#56=ORIENTED_EDGE('',*,*,#63,.F.);
#57=ORIENTED_EDGE('',*,*,#63,.T.);
#58=ORIENTED_EDGE('',*,*,#64,.F.);
#59=ORIENTED_EDGE('',*,*,#64,.T.);
#60=ORIENTED_EDGE('',*,*,#65,.F.);
#61=ORIENTED_EDGE('',*,*,#65,.T.);
#62=EDGE_CURVE('',#80,#80,#66,.T.);
#63=EDGE_CURVE('',#81,#81,#67,.T.);
#64=EDGE_CURVE('',#82,#82,#68,.T.);
#65=EDGE_CURVE('',#83,#83,#69,.T.);
#66=CIRCLE('',#111,6.25);
#67=CIRCLE('',#113,6.25);
#68=CIRCLE('',#115,1.3);
#69=CIRCLE('',#117,1.3);
#70=FACE_BOUND('',#78,.T.);
#71=FACE_BOUND('',#46,.T.);
#72=FACE_BOUND('',#47,.T.);
#73=FACE_BOUND('',#48,.T.);
#74=FACE_BOUND('',#49,.T.);
#75=FACE_BOUND('',#50,.T.);
#76=FACE_BOUND('',#51,.T.);
#77=FACE_BOUND('',#52,.T.);
#78=VERTEX_LOOP('',#79);
#79=VERTEX_POINT('',#163);
#80=VERTEX_POINT('',#165);
#81=VERTEX_POINT('',#168);
#82=VERTEX_POINT('',#171);
#83=VERTEX_POINT('',#174);
#84=COLOUR_RGB('Strong Emerald',0.,0.803921568627451,0.525490196078431);
#85=COLOUR_RGB('TLS_CUT',0.8,0.8,0.8);
#86=PRESENTATION_LAYER_ASSIGNMENT('1','Layer 1',(#106,#108,#109,#110,#33));
#87=STYLED_ITEM('',(#92),#106);
#88=STYLED_ITEM('',(#93),#108);
#89=STYLED_ITEM('',(#94),#109);
#90=STYLED_ITEM('',(#95),#110);
#91=STYLED_ITEM('',(#96),#33);
#92=PRESENTATION_STYLE_ASSIGNMENT((#97));
#93=PRESENTATION_STYLE_ASSIGNMENT((#98));
#94=PRESENTATION_STYLE_ASSIGNMENT((#99));
#95=PRESENTATION_STYLE_ASSIGNMENT((#100));
#96=PRESENTATION_STYLE_ASSIGNMENT((#28));
#97=CURVE_STYLE('',#102,POSITIVE_LENGTH_MEASURE(0.18),#101);
#98=CURVE_STYLE('',#103,POSITIVE_LENGTH_MEASURE(0.13),#84);
#99=CURVE_STYLE('',#104,POSITIVE_LENGTH_MEASURE(0.13),#84);
#100=CURVE_STYLE('',#105,POSITIVE_LENGTH_MEASURE(0.13),#84);
#101=DRAUGHTING_PRE_DEFINED_COLOUR('blue');
#102=DRAUGHTING_PRE_DEFINED_CURVE_FONT('continuous');
#103=DRAUGHTING_PRE_DEFINED_CURVE_FONT('continuous');
#104=DRAUGHTING_PRE_DEFINED_CURVE_FONT('continuous');
#105=DRAUGHTING_PRE_DEFINED_CURVE_FONT('continuous');
#106=B_SPLINE_CURVE_WITH_KNOTS('CUTTING EDGE LINE',3,(#147,#148,#149,#150,
#151,#152,#153,#154,#155,#156,#157,#158,#159),.UNSPECIFIED.,.F.,.F.,(4,
3,3,3,4),(0.,0.252708557025996,0.529408471198267,0.776461965994937,1.),
 .UNSPECIFIED.);
#107=AXIS2_PLACEMENT_3D('',#146,#120,#121);
#108=AXIS2_PLACEMENT_3D('MCS',#160,#122,#123);
#109=AXIS2_PLACEMENT_3D('PCS',#161,#124,#125);
#110=AXIS2_PLACEMENT_3D('CIP',#162,#126,#127);
#111=AXIS2_PLACEMENT_3D('',#164,#128,#129);
#112=AXIS2_PLACEMENT_3D('',#166,#130,#131);
#113=AXIS2_PLACEMENT_3D('',#167,#132,#133);
#114=AXIS2_PLACEMENT_3D('',#169,#134,#135);
#115=AXIS2_PLACEMENT_3D('',#170,#136,#137);
#116=AXIS2_PLACEMENT_3D('',#172,#138,#139);
#117=AXIS2_PLACEMENT_3D('',#173,#140,#141);
#118=AXIS2_PLACEMENT_3D('',#175,#142,#143);
#119=AXIS2_PLACEMENT_3D('',#176,#144,#145);
#120=DIRECTION('',(0.,0.,1.));
#121=DIRECTION('',(1.,0.,0.));
#122=DIRECTION('',(0.,0.,1.));
#123=DIRECTION('',(1.,0.,0.));
#124=DIRECTION('',(0.,0.,1.));
#125=DIRECTION('',(1.,0.,0.));
#126=DIRECTION('',(0.,0.,1.));
#127=DIRECTION('',(1.,0.,0.));
#128=DIRECTION('',(0.,1.20736753927986E-015,1.));
#129=DIRECTION('',(0.,1.,-1.2490009027033E-015));
#130=DIRECTION('',(0.,1.20736753927986E-015,1.));
#131=DIRECTION('',(0.,-1.,1.22365962787246E-015));
#132=DIRECTION('',(0.,1.20736753927986E-015,1.));
#133=DIRECTION('',(0.,1.,-1.20736753927986E-015));
#134=DIRECTION('',(0.,-1.20736753927986E-015,-1.));
#135=DIRECTION('',(0.,1.,-1.20736753927986E-015));
#136=DIRECTION('',(0.,1.20736753927986E-015,1.));
#137=DIRECTION('',(0.,1.,-1.20736753927986E-015));
#138=DIRECTION('',(0.,-1.20736753927986E-015,-1.));
#139=DIRECTION('',(0.,1.,-1.20736753927986E-015));
#140=DIRECTION('',(0.,1.20736753927986E-015,1.));
#141=DIRECTION('',(0.,1.,-1.33440267382831E-015));
#142=DIRECTION('',(0.,-1.20736753927986E-015,-1.));
#143=DIRECTION('',(0.,1.,-1.20736753927986E-015));
#144=DIRECTION('',(0.,-1.20736753927986E-015,-1.));
#145=DIRECTION('',(0.,1.,-1.20736753927986E-015));
#146=CARTESIAN_POINT('',(0.,0.,0.));
#147=CARTESIAN_POINT('',(6.25,0.,-5.655102));
#148=CARTESIAN_POINT('',(4.16666666666667,0.,-6.10340133333333));
#149=CARTESIAN_POINT('',(2.08333333333333,0.,-6.55170066666667));
#150=CARTESIAN_POINT('',(0.,0.,-7.));
#151=CARTESIAN_POINT('',(0.,0.,-4.66666666666667));
#152=CARTESIAN_POINT('',(0.,0.,-2.33333333333333));
#153=CARTESIAN_POINT('',(0.,0.,0.));
#154=CARTESIAN_POINT('',(2.08333333333333,0.,-1.01033360929647E-016));
#155=CARTESIAN_POINT('',(4.16666666666667,0.,-1.01033360929647E-016));
#156=CARTESIAN_POINT('',(6.25,0.,-1.01033360929647E-016));
#157=CARTESIAN_POINT('',(6.25,-2.27592886203887E-015,-1.885034));
#158=CARTESIAN_POINT('',(6.25,-4.55185772407773E-015,-3.770068));
#159=CARTESIAN_POINT('',(6.25,-6.8277865861166E-015,-5.655102));
#160=CARTESIAN_POINT('',(0.,0.,0.));
#161=CARTESIAN_POINT('',(0.,0.,0.));
#162=CARTESIAN_POINT('',(0.,0.,-7.));
#163=CARTESIAN_POINT('',(0.,0.,-7.));
#164=CARTESIAN_POINT('',(0.,-6.8277865861166E-015,-5.655102));
#165=CARTESIAN_POINT('',(0.,6.24999999999999,-5.65510200000001));
#166=CARTESIAN_POINT('',(0.,-6.8277865861166E-015,-5.655102));
#167=CARTESIAN_POINT('',(0.,-2.43968800741615E-031,-2.02066721859303E-016));
#168=CARTESIAN_POINT('',(0.,6.25,-7.74811384235841E-015));
#169=CARTESIAN_POINT('',(0.,0.,0.));
#170=CARTESIAN_POINT('',(0.,1.21441627012399E-044,1.00583809868562E-029));
#171=CARTESIAN_POINT('',(0.,1.3,-1.5695778010638E-015));
#172=CARTESIAN_POINT('',(1.3,8.33083602103102E-015,-1.01033360929657E-016));
#173=CARTESIAN_POINT('',(0.,6.27831120425526E-015,5.2));
#174=CARTESIAN_POINT('',(0.,1.30000000000001,5.2));
#175=CARTESIAN_POINT('',(0.,0.,0.));
#176=CARTESIAN_POINT('',(0.,-1.21017828644294E-030,5.2));
#177=MECHANICAL_DESIGN_GEOMETRIC_PRESENTATION_REPRESENTATION('',(#87,#88,
#89,#90,#91),#178);
#178=(
GEOMETRIC_REPRESENTATION_CONTEXT(3)
GLOBAL_UNCERTAINTY_ASSIGNED_CONTEXT((#179))
GLOBAL_UNIT_ASSIGNED_CONTEXT((#185,#181,#180))
REPRESENTATION_CONTEXT('8964_1_3d','TOP_LEVEL_ASSEMBLY_PART')
);
#179=UNCERTAINTY_MEASURE_WITH_UNIT(LENGTH_MEASURE(2.E-005),#185,
'DISTANCE_ACCURACY_VALUE','Maximum Tolerance applied to model');
#180=(
NAMED_UNIT(*)
SI_UNIT($,.STERADIAN.)
SOLID_ANGLE_UNIT()
);
#181=(
CONVERSION_BASED_UNIT('DEGREE',#183)
NAMED_UNIT(#182)
PLANE_ANGLE_UNIT()
);
#182=DIMENSIONAL_EXPONENTS(0.,0.,0.,0.,0.,0.,0.);
#183=PLANE_ANGLE_MEASURE_WITH_UNIT(PLANE_ANGLE_MEASURE(0.0174532925),#184);
#184=(
NAMED_UNIT(*)
PLANE_ANGLE_UNIT()
SI_UNIT($,.RADIAN.)
);
#185=(
LENGTH_UNIT()
NAMED_UNIT(*)
SI_UNIT(.MILLI.,.METRE.)
);
ENDSEC;
END-ISO-10303-21;
