ISO-10303-21;
HEADER;
/* Generated by software containing ST-Developer
 * from STEP Tools, Inc. (www.steptools.com) 
 */
/* OPTION: using custom schema-name function */

FILE_DESCRIPTION(
/* description */ (''),
/* implementation_level */ '2;1');

FILE_NAME(
/* name */ '7226_1_3d.stp',
/* time_stamp */ '2019-07-12T00:35:43+02:00',
/* author */ (''),
/* organization */ ('SMS'),
/* preprocessor_version */ 'ST-DEVELOPER v16.7',
/* originating_system */ 'SIEMENS PLM Software NX 12.0',
/* authorisation */ '');

FILE_SCHEMA (('AUTOMOTIVE_DESIGN { 1 0 10303 214 3 1 1 1 }'));
ENDSEC;

DATA;
#10=CONSTRUCTIVE_GEOMETRY_REPRESENTATION_RELATIONSHIP(
'supplemental geometry','',#26,#11);
#11=CONSTRUCTIVE_GEOMETRY_REPRESENTATION('supplemental geometry',(#173,
#174,#175),#287);
#12=GEOMETRICALLY_BOUNDED_WIREFRAME_SHAPE_REPRESENTATION(
'7226_1_3D-None',(#27),#287);
#13=SHAPE_REPRESENTATION_RELATIONSHIP('None',
'relationship between 7226_1_3D-None and 7226_1_3D-None',#26,#15);
#14=SHAPE_REPRESENTATION_RELATIONSHIP('None',
'relationship between 7226_1_3D-None and 7226_1_3D-None',#26,#12);
#15=ADVANCED_BREP_SHAPE_REPRESENTATION('7226_1_3D-None',(#41,#42),#287);
#16=SHAPE_DEFINITION_REPRESENTATION(#17,#26);
#17=PRODUCT_DEFINITION_SHAPE('','',#18);
#18=PRODUCT_DEFINITION(' ','',#20,#19);
#19=PRODUCT_DEFINITION_CONTEXT('part definition',#25,'design');
#20=PRODUCT_DEFINITION_FORMATION_WITH_SPECIFIED_SOURCE(' ',' ',#22,
 .NOT_KNOWN.);
#21=PRODUCT_RELATED_PRODUCT_CATEGORY('part','',(#22));
#22=PRODUCT('7226_1_3D','7226_1_3D',' ',(#23));
#23=PRODUCT_CONTEXT(' ',#25,'mechanical');
#24=APPLICATION_PROTOCOL_DEFINITION('international standard',
'automotive_design',2010,#25);
#25=APPLICATION_CONTEXT(
'core data for automotive mechanical design processes');
#26=SHAPE_REPRESENTATION('7226_1_3D-None',(#172),#287);
#27=GEOMETRIC_CURVE_SET('None',(#239,#240,#147));
#28=VERTEX_LOOP('',#122);
#29=SURFACE_STYLE_USAGE(.BOTH.,#31);
#30=SURFACE_STYLE_USAGE(.BOTH.,#32);
#31=SURFACE_SIDE_STYLE('',(#33));
#32=SURFACE_SIDE_STYLE('',(#34));
#33=SURFACE_STYLE_FILL_AREA(#35);
#34=SURFACE_STYLE_FILL_AREA(#36);
#35=FILL_AREA_STYLE('',(#37));
#36=FILL_AREA_STYLE('',(#38));
#37=FILL_AREA_STYLE_COLOUR('',#39);
#38=FILL_AREA_STYLE_COLOUR('',#40);
#39=COLOUR_RGB('TLS_NOCUT',0.499992370489052,0.499992370489052,0.499992370489052);
#40=COLOUR_RGB('TLS_CUT',0.8,0.8,0.8);
#41=MANIFOLD_SOLID_BREP('NOCUT',#43);
#42=MANIFOLD_SOLID_BREP('CUT',#44);
#43=CLOSED_SHELL('',(#55,#56,#57,#58,#59,#60));
#44=CLOSED_SHELL('',(#61,#62,#63,#64));
#45=PLANE('',#182);
#46=PLANE('',#186);
#47=PLANE('',#188);
#48=FACE_OUTER_BOUND('',#86,.T.);
#49=FACE_OUTER_BOUND('',#91,.T.);
#50=FACE_OUTER_BOUND('',#92,.T.);
#51=CONICAL_SURFACE('',#180,3.95999999999997,2.86240522611419);
#52=CONICAL_SURFACE('',#184,4.,59.9999999999999);
#53=CONICAL_SURFACE('',#191,4.01250000000003,0.0358098575329626);
#54=CONICAL_SURFACE('',#193,9.05941988094128E-14,71.85991059248);
#55=ADVANCED_FACE('',(#68,#69),#65,.T.);
#56=ADVANCED_FACE('',(#70,#71),#51,.T.);
#57=ADVANCED_FACE('',(#48),#45,.T.);
#58=ADVANCED_FACE('',(#72,#73),#52,.T.);
#59=ADVANCED_FACE('SHANK',(#74,#75),#66,.T.);
#60=ADVANCED_FACE('',(#49),#46,.T.);
#61=ADVANCED_FACE('',(#50),#47,.F.);
#62=ADVANCED_FACE('',(#76,#77),#53,.T.);
#63=ADVANCED_FACE('',(#78,#79),#67,.T.);
#64=ADVANCED_FACE('',(#80,#81),#54,.T.);
#65=CYLINDRICAL_SURFACE('',#178,3.95999999999998);
#66=CYLINDRICAL_SURFACE('',#185,4.);
#67=CYLINDRICAL_SURFACE('',#192,3.95999999999998);
#68=FACE_BOUND('',#82,.T.);
#69=FACE_BOUND('',#83,.T.);
#70=FACE_BOUND('',#84,.T.);
#71=FACE_BOUND('',#85,.T.);
#72=FACE_BOUND('',#87,.T.);
#73=FACE_BOUND('',#88,.T.);
#74=FACE_BOUND('',#89,.T.);
#75=FACE_BOUND('',#90,.T.);
#76=FACE_BOUND('',#93,.T.);
#77=FACE_BOUND('',#94,.T.);
#78=FACE_BOUND('',#95,.T.);
#79=FACE_BOUND('',#96,.T.);
#80=FACE_BOUND('',#28,.T.);
#81=FACE_BOUND('',#97,.T.);
#82=EDGE_LOOP('',(#98));
#83=EDGE_LOOP('',(#99));
#84=EDGE_LOOP('',(#100));
#85=EDGE_LOOP('',(#101));
#86=EDGE_LOOP('',(#102));
#87=EDGE_LOOP('',(#103));
#88=EDGE_LOOP('',(#104));
#89=EDGE_LOOP('',(#105));
#90=EDGE_LOOP('',(#106));
#91=EDGE_LOOP('',(#107));
#92=EDGE_LOOP('',(#108));
#93=EDGE_LOOP('',(#109));
#94=EDGE_LOOP('',(#110));
#95=EDGE_LOOP('',(#111));
#96=EDGE_LOOP('',(#112));
#97=EDGE_LOOP('',(#113));
#98=ORIENTED_EDGE('',*,*,#123,.F.);
#99=ORIENTED_EDGE('',*,*,#124,.F.);
#100=ORIENTED_EDGE('',*,*,#125,.T.);
#101=ORIENTED_EDGE('',*,*,#123,.T.);
#102=ORIENTED_EDGE('',*,*,#126,.F.);
#103=ORIENTED_EDGE('',*,*,#126,.T.);
#104=ORIENTED_EDGE('',*,*,#127,.F.);
#105=ORIENTED_EDGE('',*,*,#127,.T.);
#106=ORIENTED_EDGE('',*,*,#125,.F.);
#107=ORIENTED_EDGE('',*,*,#124,.T.);
#108=ORIENTED_EDGE('',*,*,#128,.F.);
#109=ORIENTED_EDGE('',*,*,#129,.T.);
#110=ORIENTED_EDGE('',*,*,#130,.F.);
#111=ORIENTED_EDGE('',*,*,#128,.T.);
#112=ORIENTED_EDGE('',*,*,#129,.F.);
#113=ORIENTED_EDGE('',*,*,#130,.T.);
#114=VERTEX_POINT('',#260);
#115=VERTEX_POINT('',#262);
#116=VERTEX_POINT('',#265);
#117=VERTEX_POINT('',#268);
#118=VERTEX_POINT('',#271);
#119=VERTEX_POINT('',#276);
#120=VERTEX_POINT('',#279);
#121=VERTEX_POINT('',#281);
#122=VERTEX_POINT('',#284);
#123=EDGE_CURVE('',#114,#114,#131,.T.);
#124=EDGE_CURVE('',#115,#115,#132,.T.);
#125=EDGE_CURVE('',#116,#116,#133,.T.);
#126=EDGE_CURVE('',#117,#117,#134,.T.);
#127=EDGE_CURVE('',#118,#118,#135,.T.);
#128=EDGE_CURVE('',#119,#119,#136,.T.);
#129=EDGE_CURVE('',#120,#120,#137,.T.);
#130=EDGE_CURVE('',#121,#121,#138,.T.);
#131=CIRCLE('',#176,3.95999999999998);
#132=CIRCLE('',#177,3.95999999999998);
#133=CIRCLE('',#179,4.);
#134=CIRCLE('',#181,2.5);
#135=CIRCLE('',#183,4.);
#136=CIRCLE('',#187,3.95999999999998);
#137=CIRCLE('',#189,3.95999999999999);
#138=CIRCLE('',#190,4.00000000000002);
#139=CURVE_STYLE('',#143,POSITIVE_LENGTH_MEASURE(0.18),#169);
#140=CURVE_STYLE('',#144,POSITIVE_LENGTH_MEASURE(0.13),#171);
#141=CURVE_STYLE('',#145,POSITIVE_LENGTH_MEASURE(0.13),#171);
#142=CURVE_STYLE('',#146,POSITIVE_LENGTH_MEASURE(0.13),#171);
#143=DRAUGHTING_PRE_DEFINED_CURVE_FONT('continuous');
#144=DRAUGHTING_PRE_DEFINED_CURVE_FONT('continuous');
#145=DRAUGHTING_PRE_DEFINED_CURVE_FONT('continuous');
#146=DRAUGHTING_PRE_DEFINED_CURVE_FONT('continuous');
#147=B_SPLINE_CURVE_WITH_KNOTS('CUTTING PART LINE',3,(#241,#242,#243,#244,
#245,#246,#247,#248,#249,#250,#251,#252,#253,#254,#255),.UNSPECIFIED.,.T.,
 .F.,(4,3,3,2,3,4),(0.,0.492993854822672,0.501084094203956,0.860649267432845,
0.991400636506129,1.),.UNSPECIFIED.);
#148=PRESENTATION_LAYER_ASSIGNMENT('1','Layer 1',(#239,#240,#147,#173,#174,
#175,#41,#42));
#149=STYLED_ITEM('',(#157),#239);
#150=STYLED_ITEM('',(#158),#240);
#151=STYLED_ITEM('',(#159),#147);
#152=STYLED_ITEM('',(#160),#173);
#153=STYLED_ITEM('',(#161),#174);
#154=STYLED_ITEM('',(#162),#175);
#155=STYLED_ITEM('',(#163),#41);
#156=STYLED_ITEM('',(#164),#42);
#157=PRESENTATION_STYLE_ASSIGNMENT((#165));
#158=PRESENTATION_STYLE_ASSIGNMENT((#166));
#159=PRESENTATION_STYLE_ASSIGNMENT((#139));
#160=PRESENTATION_STYLE_ASSIGNMENT((#140));
#161=PRESENTATION_STYLE_ASSIGNMENT((#141));
#162=PRESENTATION_STYLE_ASSIGNMENT((#142));
#163=PRESENTATION_STYLE_ASSIGNMENT((#29));
#164=PRESENTATION_STYLE_ASSIGNMENT((#30));
#165=POINT_STYLE('',#167,POSITIVE_LENGTH_MEASURE(3.),#169);
#166=POINT_STYLE('',#168,POSITIVE_LENGTH_MEASURE(3.),#170);
#167=PRE_DEFINED_POINT_MARKER_SYMBOL('plus');
#168=PRE_DEFINED_POINT_MARKER_SYMBOL('plus');
#169=DRAUGHTING_PRE_DEFINED_COLOUR('blue');
#170=DRAUGHTING_PRE_DEFINED_COLOUR('white');
#171=DRAUGHTING_PRE_DEFINED_COLOUR('green');
#172=AXIS2_PLACEMENT_3D('',#238,#194,#195);
#173=AXIS2_PLACEMENT_3D('PCS',#256,#196,#197);
#174=AXIS2_PLACEMENT_3D('MCS',#257,#198,#199);
#175=AXIS2_PLACEMENT_3D('CIP',#258,#200,#201);
#176=AXIS2_PLACEMENT_3D('',#259,#202,#203);
#177=AXIS2_PLACEMENT_3D('',#261,#204,#205);
#178=AXIS2_PLACEMENT_3D('',#263,#206,#207);
#179=AXIS2_PLACEMENT_3D('',#264,#208,#209);
#180=AXIS2_PLACEMENT_3D('',#266,#210,#211);
#181=AXIS2_PLACEMENT_3D('',#267,#212,#213);
#182=AXIS2_PLACEMENT_3D('',#269,#214,#215);
#183=AXIS2_PLACEMENT_3D('',#270,#216,#217);
#184=AXIS2_PLACEMENT_3D('',#272,#218,#219);
#185=AXIS2_PLACEMENT_3D('',#273,#220,#221);
#186=AXIS2_PLACEMENT_3D('',#274,#222,#223);
#187=AXIS2_PLACEMENT_3D('',#275,#224,#225);
#188=AXIS2_PLACEMENT_3D('',#277,#226,#227);
#189=AXIS2_PLACEMENT_3D('',#278,#228,#229);
#190=AXIS2_PLACEMENT_3D('',#280,#230,#231);
#191=AXIS2_PLACEMENT_3D('',#282,#232,#233);
#192=AXIS2_PLACEMENT_3D('',#283,#234,#235);
#193=AXIS2_PLACEMENT_3D('',#285,#236,#237);
#194=DIRECTION('',(0.,0.,1.));
#195=DIRECTION('',(1.,0.,0.));
#196=DIRECTION('',(0.,0.,1.));
#197=DIRECTION('',(1.,0.,0.));
#198=DIRECTION('',(0.,0.,1.));
#199=DIRECTION('',(1.,0.,0.));
#200=DIRECTION('',(0.,0.,1.));
#201=DIRECTION('',(1.,0.,0.));
#202=DIRECTION('',(0.,0.,1.));
#203=DIRECTION('',(1.,0.,0.));
#204=DIRECTION('',(0.,0.,-1.));
#205=DIRECTION('',(1.,0.,0.));
#206=DIRECTION('',(0.,0.,1.));
#207=DIRECTION('',(-1.,0.,0.));
#208=DIRECTION('',(0.,0.,-1.));
#209=DIRECTION('',(1.,0.,0.));
#210=DIRECTION('',(0.,0.,1.));
#211=DIRECTION('',(-1.,0.,-9.00153026821946E-16));
#212=DIRECTION('',(0.,0.,-1.));
#213=DIRECTION('',(1.,0.,0.));
#214=DIRECTION('',(0.,0.,1.));
#215=DIRECTION('',(-1.,0.,0.));
#216=DIRECTION('',(0.,0.,-1.));
#217=DIRECTION('',(1.,0.,0.));
#218=DIRECTION('',(0.,0.,-1.));
#219=DIRECTION('',(1.,0.,0.));
#220=DIRECTION('',(0.,0.,-1.));
#221=DIRECTION('',(1.,0.,0.));
#222=DIRECTION('',(0.,0.,-1.));
#223=DIRECTION('',(1.,0.,0.));
#224=DIRECTION('',(0.,0.,-1.));
#225=DIRECTION('',(1.,0.,0.));
#226=DIRECTION('',(0.,0.,-1.));
#227=DIRECTION('',(1.,0.,0.));
#228=DIRECTION('',(0.,0.,-1.));
#229=DIRECTION('',(-1.,0.,0.));
#230=DIRECTION('',(0.,0.,-1.));
#231=DIRECTION('',(-1.,0.,0.));
#232=DIRECTION('',(0.,0.,-1.));
#233=DIRECTION('',(1.,0.,-1.19700595646904E-14));
#234=DIRECTION('',(0.,0.,1.));
#235=DIRECTION('',(-1.,0.,0.));
#236=DIRECTION('',(0.,0.,1.));
#237=DIRECTION('',(-1.,0.,-1.81868409221404E-17));
#238=CARTESIAN_POINT('',(0.,0.,0.));
#239=CARTESIAN_POINT('CRP',(4.,0.,-304.6895));
#240=CARTESIAN_POINT('',(0.,0.,-306.));
#241=CARTESIAN_POINT('',(0.,0.,-306.));
#242=CARTESIAN_POINT('',(0.,0.,-225.563333333333));
#243=CARTESIAN_POINT('',(0.,0.,-145.126666666667));
#244=CARTESIAN_POINT('',(0.,0.,-64.69));
#245=CARTESIAN_POINT('',(1.31999999999999,0.,-64.69));
#246=CARTESIAN_POINT('',(2.63999999999999,0.,-64.69));
#247=CARTESIAN_POINT('',(3.95999999999998,0.,-64.69));
#248=CARTESIAN_POINT('',(3.95999999999998,0.,-123.3565));
#249=CARTESIAN_POINT('',(3.95999999999998,0.,-182.023));
#250=CARTESIAN_POINT('',(3.95999999999998,0.,-262.0228375));
#251=CARTESIAN_POINT('',(3.98666666666668,0.,-283.356166666667));
#252=CARTESIAN_POINT('',(4.00000000000002,0.,-304.6895));
#253=CARTESIAN_POINT('',(2.66666666666626,0.,-305.126333333334));
#254=CARTESIAN_POINT('',(1.33333333333313,0.,-305.563166666667));
#255=CARTESIAN_POINT('',(0.,0.,-306.));
#256=CARTESIAN_POINT('',(0.,0.,0.));
#257=CARTESIAN_POINT('',(0.,0.,-36.));
#258=CARTESIAN_POINT('',(0.,0.,-306.));
#259=CARTESIAN_POINT('',(0.,0.,-36.8));
#260=CARTESIAN_POINT('',(3.95999999999998,0.,-36.8));
#261=CARTESIAN_POINT('',(0.,0.,-64.69));
#262=CARTESIAN_POINT('',(3.95999999999998,0.,-64.69));
#263=CARTESIAN_POINT('',(0.,0.,15.2045468976791));
#264=CARTESIAN_POINT('',(0.,0.,-36.));
#265=CARTESIAN_POINT('',(4.,0.,-36.));
#266=CARTESIAN_POINT('',(0.,0.,-36.8));
#267=CARTESIAN_POINT('',(0.,0.,0.));
#268=CARTESIAN_POINT('',(2.5,0.,0.));
#269=CARTESIAN_POINT('',(2.5,0.,1.11022302462516E-16));
#270=CARTESIAN_POINT('',(0.,0.,-0.866025403784443));
#271=CARTESIAN_POINT('',(4.,0.,-0.866025403784443));
#272=CARTESIAN_POINT('',(0.,0.,-0.866025403784443));
#273=CARTESIAN_POINT('',(0.,0.,15.2045468976791));
#274=CARTESIAN_POINT('',(0.,0.,-64.69));
#275=CARTESIAN_POINT('',(0.,0.,-64.69));
#276=CARTESIAN_POINT('',(3.95999999999998,0.,-64.69));
#277=CARTESIAN_POINT('',(0.,0.,-64.69));
#278=CARTESIAN_POINT('',(0.,0.,-240.6895));
#279=CARTESIAN_POINT('',(-3.95999999999999,0.,-240.6895));
#280=CARTESIAN_POINT('',(0.,0.,-304.6895));
#281=CARTESIAN_POINT('',(-4.00000000000002,0.,-304.6895));
#282=CARTESIAN_POINT('',(0.,0.,-324.6895));
#283=CARTESIAN_POINT('',(0.,0.,15.2045468976791));
#284=CARTESIAN_POINT('',(9.05941988094128E-14,0.,-306.));
#285=CARTESIAN_POINT('',(0.,0.,-306.));
#286=MECHANICAL_DESIGN_GEOMETRIC_PRESENTATION_REPRESENTATION('',(#149,#150,
#151,#152,#153,#154,#155,#156),#287);
#287=(
GEOMETRIC_REPRESENTATION_CONTEXT(3)
GLOBAL_UNCERTAINTY_ASSIGNED_CONTEXT((#288))
GLOBAL_UNIT_ASSIGNED_CONTEXT((#294,#290,#289))
REPRESENTATION_CONTEXT('7226_1_3d','TOP_LEVEL_ASSEMBLY_PART')
);
#288=UNCERTAINTY_MEASURE_WITH_UNIT(LENGTH_MEASURE(2.E-5),#294,
'DISTANCE_ACCURACY_VALUE','Maximum Tolerance applied to model');
#289=(
NAMED_UNIT(*)
SI_UNIT($,.STERADIAN.)
SOLID_ANGLE_UNIT()
);
#290=(
CONVERSION_BASED_UNIT('DEGREE',#292)
NAMED_UNIT(#291)
PLANE_ANGLE_UNIT()
);
#291=DIMENSIONAL_EXPONENTS(0.,0.,0.,0.,0.,0.,0.);
#292=PLANE_ANGLE_MEASURE_WITH_UNIT(PLANE_ANGLE_MEASURE(0.0174532925),#293);
#293=(
NAMED_UNIT(*)
PLANE_ANGLE_UNIT()
SI_UNIT($,.RADIAN.)
);
#294=(
LENGTH_UNIT()
NAMED_UNIT(*)
SI_UNIT(.MILLI.,.METRE.)
);
ENDSEC;
END-ISO-10303-21;
