ISO-10303-21;
HEADER;
/* Generated by software containing ST-Developer
 * from STEP Tools, Inc. (www.steptools.com) 
 */
/* OPTION: using custom schema-name function */

FILE_DESCRIPTION(
/* description */ (''),
/* implementation_level */ '2;1');

FILE_NAME(
/* name */ '6682_1_3d.stp',
/* time_stamp */ '2019-07-11T23:44:48+02:00',
/* author */ (''),
/* organization */ ('SMS'),
/* preprocessor_version */ 'ST-DEVELOPER v16.7',
/* originating_system */ 'SIEMENS PLM Software NX 12.0',
/* authorisation */ '');

FILE_SCHEMA (('AUTOMOTIVE_DESIGN { 1 0 10303 214 3 1 1 1 }'));
ENDSEC;

DATA;
#10=CONSTRUCTIVE_GEOMETRY_REPRESENTATION_RELATIONSHIP(
'supplemental geometry','',#26,#11);
#11=CONSTRUCTIVE_GEOMETRY_REPRESENTATION('supplemental geometry',(#162,
#163,#164),#265);
#12=GEOMETRICALLY_BOUNDED_WIREFRAME_SHAPE_REPRESENTATION(
'6682_1_3D-None',(#27),#265);
#13=SHAPE_REPRESENTATION_RELATIONSHIP('None',
'relationship between 6682_1_3D-None and 6682_1_3D-None',#26,#15);
#14=SHAPE_REPRESENTATION_RELATIONSHIP('None',
'relationship between 6682_1_3D-None and 6682_1_3D-None',#26,#12);
#15=ADVANCED_BREP_SHAPE_REPRESENTATION('6682_1_3D-None',(#41,#42),#265);
#16=SHAPE_DEFINITION_REPRESENTATION(#17,#26);
#17=PRODUCT_DEFINITION_SHAPE('','',#18);
#18=PRODUCT_DEFINITION(' ','',#20,#19);
#19=PRODUCT_DEFINITION_CONTEXT('part definition',#25,'design');
#20=PRODUCT_DEFINITION_FORMATION_WITH_SPECIFIED_SOURCE(' ',' ',#22,
 .NOT_KNOWN.);
#21=PRODUCT_RELATED_PRODUCT_CATEGORY('part','',(#22));
#22=PRODUCT('6682_1_3D','6682_1_3D',' ',(#23));
#23=PRODUCT_CONTEXT(' ',#25,'mechanical');
#24=APPLICATION_PROTOCOL_DEFINITION('international standard',
'automotive_design',2010,#25);
#25=APPLICATION_CONTEXT(
'core data for automotive mechanical design processes');
#26=SHAPE_REPRESENTATION('6682_1_3D-None',(#161),#265);
#27=GEOMETRIC_CURVE_SET('None',(#222,#223,#136));
#28=VERTEX_LOOP('',#113);
#29=SURFACE_STYLE_USAGE(.BOTH.,#31);
#30=SURFACE_STYLE_USAGE(.BOTH.,#32);
#31=SURFACE_SIDE_STYLE('',(#33));
#32=SURFACE_SIDE_STYLE('',(#34));
#33=SURFACE_STYLE_FILL_AREA(#35);
#34=SURFACE_STYLE_FILL_AREA(#36);
#35=FILL_AREA_STYLE('',(#37));
#36=FILL_AREA_STYLE('',(#38));
#37=FILL_AREA_STYLE_COLOUR('',#39);
#38=FILL_AREA_STYLE_COLOUR('',#40);
#39=COLOUR_RGB('TLS_NOCUT',0.499992370489052,0.499992370489052,0.499992370489052);
#40=COLOUR_RGB('TLS_CUT',0.8,0.8,0.8);
#41=MANIFOLD_SOLID_BREP('NOCUT',#43);
#42=MANIFOLD_SOLID_BREP('CUT',#44);
#43=CLOSED_SHELL('',(#52,#53,#54,#55,#56,#57));
#44=CLOSED_SHELL('',(#58,#59,#60));
#45=CYLINDRICAL_SURFACE('',#174,8.);
#46=PLANE('',#171);
#47=PLANE('',#175);
#48=PLANE('',#177);
#49=FACE_OUTER_BOUND('',#82,.T.);
#50=FACE_OUTER_BOUND('',#87,.T.);
#51=FACE_OUTER_BOUND('',#88,.T.);
#52=ADVANCED_FACE('',(#66,#67),#61,.T.);
#53=ADVANCED_FACE('',(#68,#69),#62,.T.);
#54=ADVANCED_FACE('',(#49),#46,.T.);
#55=ADVANCED_FACE('',(#70,#71),#63,.T.);
#56=ADVANCED_FACE('SHANK',(#72,#73),#45,.T.);
#57=ADVANCED_FACE('',(#50),#47,.T.);
#58=ADVANCED_FACE('',(#51),#48,.F.);
#59=ADVANCED_FACE('',(#74,#75),#64,.T.);
#60=ADVANCED_FACE('',(#76,#77),#65,.T.);
#61=CONICAL_SURFACE('',#167,8.01250000000224,0.0358098575393132);
#62=CONICAL_SURFACE('',#169,7.89915224998205,3.84631200533982);
#63=CONICAL_SURFACE('',#173,8.,60.);
#64=CONICAL_SURFACE('',#179,8.01250000000224,0.0358098575393132);
#65=CONICAL_SURFACE('',#180,1.4210854715202E-13,74.9999568292422);
#66=FACE_BOUND('',#78,.T.);
#67=FACE_BOUND('',#79,.T.);
#68=FACE_BOUND('',#80,.T.);
#69=FACE_BOUND('',#81,.T.);
#70=FACE_BOUND('',#83,.T.);
#71=FACE_BOUND('',#84,.T.);
#72=FACE_BOUND('',#85,.T.);
#73=FACE_BOUND('',#86,.T.);
#74=FACE_BOUND('',#89,.T.);
#75=FACE_BOUND('',#90,.T.);
#76=FACE_BOUND('',#28,.T.);
#77=FACE_BOUND('',#91,.T.);
#78=EDGE_LOOP('',(#92));
#79=EDGE_LOOP('',(#93));
#80=EDGE_LOOP('',(#94));
#81=EDGE_LOOP('',(#95));
#82=EDGE_LOOP('',(#96));
#83=EDGE_LOOP('',(#97));
#84=EDGE_LOOP('',(#98));
#85=EDGE_LOOP('',(#99));
#86=EDGE_LOOP('',(#100));
#87=EDGE_LOOP('',(#101));
#88=EDGE_LOOP('',(#102));
#89=EDGE_LOOP('',(#103));
#90=EDGE_LOOP('',(#104));
#91=EDGE_LOOP('',(#105));
#92=ORIENTED_EDGE('',*,*,#114,.F.);
#93=ORIENTED_EDGE('',*,*,#115,.F.);
#94=ORIENTED_EDGE('',*,*,#116,.T.);
#95=ORIENTED_EDGE('',*,*,#114,.T.);
#96=ORIENTED_EDGE('',*,*,#117,.F.);
#97=ORIENTED_EDGE('',*,*,#117,.T.);
#98=ORIENTED_EDGE('',*,*,#118,.F.);
#99=ORIENTED_EDGE('',*,*,#118,.T.);
#100=ORIENTED_EDGE('',*,*,#116,.F.);
#101=ORIENTED_EDGE('',*,*,#115,.T.);
#102=ORIENTED_EDGE('',*,*,#119,.F.);
#103=ORIENTED_EDGE('',*,*,#119,.T.);
#104=ORIENTED_EDGE('',*,*,#120,.F.);
#105=ORIENTED_EDGE('',*,*,#120,.T.);
#106=VERTEX_POINT('',#241);
#107=VERTEX_POINT('',#243);
#108=VERTEX_POINT('',#246);
#109=VERTEX_POINT('',#249);
#110=VERTEX_POINT('',#252);
#111=VERTEX_POINT('',#257);
#112=VERTEX_POINT('',#260);
#113=VERTEX_POINT('',#262);
#114=EDGE_CURVE('',#106,#106,#121,.T.);
#115=EDGE_CURVE('',#107,#107,#122,.T.);
#116=EDGE_CURVE('',#108,#108,#123,.T.);
#117=EDGE_CURVE('',#109,#109,#124,.T.);
#118=EDGE_CURVE('',#110,#110,#125,.T.);
#119=EDGE_CURVE('',#111,#111,#126,.T.);
#120=EDGE_CURVE('',#112,#112,#127,.T.);
#121=CIRCLE('',#165,7.89915224998204);
#122=CIRCLE('',#166,7.92000224998576);
#123=CIRCLE('',#168,8.);
#124=CIRCLE('',#170,4.5);
#125=CIRCLE('',#172,8.);
#126=CIRCLE('',#176,7.92000224998576);
#127=CIRCLE('',#178,8.00000000000001);
#128=CURVE_STYLE('',#132,POSITIVE_LENGTH_MEASURE(0.18),#158);
#129=CURVE_STYLE('',#133,POSITIVE_LENGTH_MEASURE(0.13),#160);
#130=CURVE_STYLE('',#134,POSITIVE_LENGTH_MEASURE(0.13),#160);
#131=CURVE_STYLE('',#135,POSITIVE_LENGTH_MEASURE(0.13),#160);
#132=DRAUGHTING_PRE_DEFINED_CURVE_FONT('continuous');
#133=DRAUGHTING_PRE_DEFINED_CURVE_FONT('continuous');
#134=DRAUGHTING_PRE_DEFINED_CURVE_FONT('continuous');
#135=DRAUGHTING_PRE_DEFINED_CURVE_FONT('continuous');
#136=B_SPLINE_CURVE_WITH_KNOTS('CUTTING PART LINE',3,(#224,#225,#226,#227,
#228,#229,#230,#231,#232,#233,#234,#235,#236),.UNSPECIFIED.,.T.,.F.,(4,
3,3,3,4),(0.,0.474377217790965,0.503246655567562,0.969810263822927,1.),
 .UNSPECIFIED.);
#137=PRESENTATION_LAYER_ASSIGNMENT('1','Layer 1',(#222,#223,#136,#162,#163,
#164,#41,#42));
#138=STYLED_ITEM('',(#146),#222);
#139=STYLED_ITEM('',(#147),#223);
#140=STYLED_ITEM('',(#148),#136);
#141=STYLED_ITEM('',(#149),#162);
#142=STYLED_ITEM('',(#150),#163);
#143=STYLED_ITEM('',(#151),#164);
#144=STYLED_ITEM('',(#152),#41);
#145=STYLED_ITEM('',(#153),#42);
#146=PRESENTATION_STYLE_ASSIGNMENT((#154));
#147=PRESENTATION_STYLE_ASSIGNMENT((#155));
#148=PRESENTATION_STYLE_ASSIGNMENT((#128));
#149=PRESENTATION_STYLE_ASSIGNMENT((#129));
#150=PRESENTATION_STYLE_ASSIGNMENT((#130));
#151=PRESENTATION_STYLE_ASSIGNMENT((#131));
#152=PRESENTATION_STYLE_ASSIGNMENT((#29));
#153=PRESENTATION_STYLE_ASSIGNMENT((#30));
#154=POINT_STYLE('',#156,POSITIVE_LENGTH_MEASURE(3.),#158);
#155=POINT_STYLE('',#157,POSITIVE_LENGTH_MEASURE(3.),#159);
#156=PRE_DEFINED_POINT_MARKER_SYMBOL('plus');
#157=PRE_DEFINED_POINT_MARKER_SYMBOL('plus');
#158=DRAUGHTING_PRE_DEFINED_COLOUR('blue');
#159=DRAUGHTING_PRE_DEFINED_COLOUR('white');
#160=DRAUGHTING_PRE_DEFINED_COLOUR('green');
#161=AXIS2_PLACEMENT_3D('',#221,#181,#182);
#162=AXIS2_PLACEMENT_3D('PCS',#237,#183,#184);
#163=AXIS2_PLACEMENT_3D('MCS',#238,#185,#186);
#164=AXIS2_PLACEMENT_3D('CIP',#239,#187,#188);
#165=AXIS2_PLACEMENT_3D('',#240,#189,#190);
#166=AXIS2_PLACEMENT_3D('',#242,#191,#192);
#167=AXIS2_PLACEMENT_3D('',#244,#193,#194);
#168=AXIS2_PLACEMENT_3D('',#245,#195,#196);
#169=AXIS2_PLACEMENT_3D('',#247,#197,#198);
#170=AXIS2_PLACEMENT_3D('',#248,#199,#200);
#171=AXIS2_PLACEMENT_3D('',#250,#201,#202);
#172=AXIS2_PLACEMENT_3D('',#251,#203,#204);
#173=AXIS2_PLACEMENT_3D('',#253,#205,#206);
#174=AXIS2_PLACEMENT_3D('',#254,#207,#208);
#175=AXIS2_PLACEMENT_3D('',#255,#209,#210);
#176=AXIS2_PLACEMENT_3D('',#256,#211,#212);
#177=AXIS2_PLACEMENT_3D('',#258,#213,#214);
#178=AXIS2_PLACEMENT_3D('',#259,#215,#216);
#179=AXIS2_PLACEMENT_3D('',#261,#217,#218);
#180=AXIS2_PLACEMENT_3D('',#263,#219,#220);
#181=DIRECTION('',(0.,0.,1.));
#182=DIRECTION('',(1.,0.,0.));
#183=DIRECTION('',(0.,0.,1.));
#184=DIRECTION('',(1.,0.,0.));
#185=DIRECTION('',(0.,0.,1.));
#186=DIRECTION('',(1.,0.,0.));
#187=DIRECTION('',(0.,0.,1.));
#188=DIRECTION('',(1.,0.,0.));
#189=DIRECTION('',(0.,0.,1.));
#190=DIRECTION('',(1.,0.,0.));
#191=DIRECTION('',(0.,0.,-1.));
#192=DIRECTION('',(1.,0.,0.));
#193=DIRECTION('',(0.,0.,-1.));
#194=DIRECTION('',(1.,0.,6.42676135809297E-15));
#195=DIRECTION('',(0.,0.,-1.));
#196=DIRECTION('',(1.,0.,0.));
#197=DIRECTION('',(0.,0.,1.));
#198=DIRECTION('',(-1.,0.,1.8471457146285E-16));
#199=DIRECTION('',(0.,0.,-1.));
#200=DIRECTION('',(1.,0.,0.));
#201=DIRECTION('',(0.,0.,1.));
#202=DIRECTION('',(-1.,0.,0.));
#203=DIRECTION('',(0.,0.,-1.));
#204=DIRECTION('',(1.,0.,0.));
#205=DIRECTION('',(0.,0.,-1.));
#206=DIRECTION('',(1.,0.,3.48928441601179E-17));
#207=DIRECTION('',(0.,0.,-1.));
#208=DIRECTION('',(1.,0.,0.));
#209=DIRECTION('',(0.,0.,-1.));
#210=DIRECTION('',(1.,0.,0.));
#211=DIRECTION('',(0.,0.,-1.));
#212=DIRECTION('',(1.,0.,0.));
#213=DIRECTION('',(0.,0.,-1.));
#214=DIRECTION('',(1.,0.,0.));
#215=DIRECTION('',(0.,0.,-1.));
#216=DIRECTION('',(-1.,0.,0.));
#217=DIRECTION('',(0.,0.,-1.));
#218=DIRECTION('',(1.,0.,6.42676135809297E-15));
#219=DIRECTION('',(0.,0.,1.));
#220=DIRECTION('',(-1.,0.,7.43710648620767E-18));
#221=CARTESIAN_POINT('',(0.,0.,0.));
#222=CARTESIAN_POINT('CRP',(8.,0.,-210.8564));
#223=CARTESIAN_POINT('',(0.,0.,-213.));
#224=CARTESIAN_POINT('',(0.,0.,-213.));
#225=CARTESIAN_POINT('',(0.,0.,-169.619999999999));
#226=CARTESIAN_POINT('',(0.,0.,-126.239999999999));
#227=CARTESIAN_POINT('',(0.,0.,-82.8599999999984));
#228=CARTESIAN_POINT('',(2.64000074999525,0.,-82.86));
#229=CARTESIAN_POINT('',(5.28000149999051,0.,-82.86));
#230=CARTESIAN_POINT('',(7.92000224998576,0.,-82.86));
#231=CARTESIAN_POINT('',(7.94666816665717,0.,-125.525466666664));
#232=CARTESIAN_POINT('',(7.97333408332859,0.,-168.19093333333));
#233=CARTESIAN_POINT('',(8.00000000000001,0.,-210.856399999995));
#234=CARTESIAN_POINT('',(5.33333333334023,0.,-211.570933333332));
#235=CARTESIAN_POINT('',(2.66666666667012,0.,-212.285466666666));
#236=CARTESIAN_POINT('',(0.,0.,-213.));
#237=CARTESIAN_POINT('',(0.,0.,0.));
#238=CARTESIAN_POINT('',(0.,0.,-48.));
#239=CARTESIAN_POINT('',(0.,0.,-213.));
#240=CARTESIAN_POINT('',(0.,0.,-49.5));
#241=CARTESIAN_POINT('',(7.89915224998204,0.,-49.5));
#242=CARTESIAN_POINT('',(0.,0.,-82.86));
#243=CARTESIAN_POINT('',(7.92000224998576,0.,-82.86));
#244=CARTESIAN_POINT('',(0.,0.,-230.8564));
#245=CARTESIAN_POINT('',(0.,0.,-48.));
#246=CARTESIAN_POINT('',(8.,0.,-48.));
#247=CARTESIAN_POINT('',(0.,0.,-49.5));
#248=CARTESIAN_POINT('',(0.,0.,0.));
#249=CARTESIAN_POINT('',(4.5,0.,0.));
#250=CARTESIAN_POINT('',(4.5,0.,2.22044604925031E-16));
#251=CARTESIAN_POINT('',(0.,0.,-2.02072594216369));
#252=CARTESIAN_POINT('',(8.,0.,-2.02072594216369));
#253=CARTESIAN_POINT('',(0.,0.,-2.02072594216369));
#254=CARTESIAN_POINT('',(0.,0.,15.2045468976791));
#255=CARTESIAN_POINT('',(0.,0.,-82.86));
#256=CARTESIAN_POINT('',(0.,0.,-82.86));
#257=CARTESIAN_POINT('',(7.92000224998576,0.,-82.86));
#258=CARTESIAN_POINT('',(0.,0.,-82.86));
#259=CARTESIAN_POINT('',(0.,0.,-210.856399999997));
#260=CARTESIAN_POINT('',(-8.00000000000001,0.,-210.856399999997));
#261=CARTESIAN_POINT('',(0.,0.,-230.8564));
#262=CARTESIAN_POINT('',(1.4210854715202E-13,0.,-213.));
#263=CARTESIAN_POINT('',(0.,0.,-213.));
#264=MECHANICAL_DESIGN_GEOMETRIC_PRESENTATION_REPRESENTATION('',(#138,#139,
#140,#141,#142,#143,#144,#145),#265);
#265=(
GEOMETRIC_REPRESENTATION_CONTEXT(3)
GLOBAL_UNCERTAINTY_ASSIGNED_CONTEXT((#266))
GLOBAL_UNIT_ASSIGNED_CONTEXT((#272,#268,#267))
REPRESENTATION_CONTEXT('6682_1_3d','TOP_LEVEL_ASSEMBLY_PART')
);
#266=UNCERTAINTY_MEASURE_WITH_UNIT(LENGTH_MEASURE(2.E-5),#272,
'DISTANCE_ACCURACY_VALUE','Maximum Tolerance applied to model');
#267=(
NAMED_UNIT(*)
SI_UNIT($,.STERADIAN.)
SOLID_ANGLE_UNIT()
);
#268=(
CONVERSION_BASED_UNIT('DEGREE',#270)
NAMED_UNIT(#269)
PLANE_ANGLE_UNIT()
);
#269=DIMENSIONAL_EXPONENTS(0.,0.,0.,0.,0.,0.,0.);
#270=PLANE_ANGLE_MEASURE_WITH_UNIT(PLANE_ANGLE_MEASURE(0.0174532925),#271);
#271=(
NAMED_UNIT(*)
PLANE_ANGLE_UNIT()
SI_UNIT($,.RADIAN.)
);
#272=(
LENGTH_UNIT()
NAMED_UNIT(*)
SI_UNIT(.MILLI.,.METRE.)
);
ENDSEC;
END-ISO-10303-21;
