ISO-10303-21;
HEADER;
/* Generated by software containing ST-Developer
 * from STEP Tools, Inc. (www.steptools.com) 
 */
/* OPTION: using custom schema-name function */

FILE_DESCRIPTION(
/* description */ ('3-D model version:1'),
/* implementation_level */ '2;1');

FILE_NAME(
/* name */ '690-100Q32-1461H',
/* time_stamp */ '2014-06-17T15:58:55+02:00',
/* author */ ('CappDp'),
/* organization */ ('AB Sandvik Coromant'),
/* preprocessor_version */ 'ST-DEVELOPER v11',
/* originating_system */ 'SIEMENS UGS NX 6.0',
/* authorisation */ '');

FILE_SCHEMA (('AP203_CONFIGURATION_CONTROLLED_3D_DESIGN_OF_MECHANICAL_PARTS_AND_ASSEMBLIES_MIM_LF'));
ENDSEC;

DATA;
#10=SHAPE_REPRESENTATION_RELATIONSHIP('None',
'relationship between 3446_1_3D-None and 3446_1_3D-None',#94,#11);
#11=ADVANCED_BREP_SHAPE_REPRESENTATION('3446_1_3D-None',(#127,#128),#647);
#12=CC_DESIGN_APPROVAL(#24,(#82));
#13=CC_DESIGN_APPROVAL(#25,(#84));
#14=CC_DESIGN_APPROVAL(#26,(#31));
#15=APPROVAL_PERSON_ORGANIZATION(#69,#24,#18);
#16=APPROVAL_PERSON_ORGANIZATION(#70,#25,#19);
#17=APPROVAL_PERSON_ORGANIZATION(#71,#26,#20);
#18=APPROVAL_ROLE('approver');
#19=APPROVAL_ROLE('approver');
#20=APPROVAL_ROLE('approver');
#21=APPROVAL_DATE_TIME(#39,#24);
#22=APPROVAL_DATE_TIME(#40,#25);
#23=APPROVAL_DATE_TIME(#41,#26);
#24=APPROVAL(#27,' ');
#25=APPROVAL(#28,' ');
#26=APPROVAL(#29,' ');
#27=APPROVAL_STATUS('not_yet_approved');
#28=APPROVAL_STATUS('not_yet_approved');
#29=APPROVAL_STATUS('not_yet_approved');
#30=CC_DESIGN_SECURITY_CLASSIFICATION(#31,(#84));
#31=SECURITY_CLASSIFICATION(' ',' ',#32);
#32=SECURITY_CLASSIFICATION_LEVEL('confidential');
#33=CC_DESIGN_DATE_AND_TIME_ASSIGNMENT(#37,#35,(#82));
#34=CC_DESIGN_DATE_AND_TIME_ASSIGNMENT(#38,#36,(#31));
#35=DATE_TIME_ROLE('creation_date');
#36=DATE_TIME_ROLE('classification_date');
#37=DATE_AND_TIME(#52,#42);
#38=DATE_AND_TIME(#53,#43);
#39=DATE_AND_TIME(#54,#44);
#40=DATE_AND_TIME(#55,#45);
#41=DATE_AND_TIME(#56,#46);
#42=LOCAL_TIME(0,0,0.,#47);
#43=LOCAL_TIME(0,0,0.,#48);
#44=LOCAL_TIME(0,0,0.,#49);
#45=LOCAL_TIME(0,0,0.,#50);
#46=LOCAL_TIME(0,0,0.,#51);
#47=COORDINATED_UNIVERSAL_TIME_OFFSET(0,0,.BEHIND.);
#48=COORDINATED_UNIVERSAL_TIME_OFFSET(0,0,.BEHIND.);
#49=COORDINATED_UNIVERSAL_TIME_OFFSET(0,0,.BEHIND.);
#50=COORDINATED_UNIVERSAL_TIME_OFFSET(0,0,.BEHIND.);
#51=COORDINATED_UNIVERSAL_TIME_OFFSET(0,0,.BEHIND.);
#52=CALENDAR_DATE(0,1,1);
#53=CALENDAR_DATE(0,1,1);
#54=CALENDAR_DATE(0,1,1);
#55=CALENDAR_DATE(0,1,1);
#56=CALENDAR_DATE(0,1,1);
#57=CC_DESIGN_PERSON_AND_ORGANIZATION_ASSIGNMENT(#65,#61,(#82,#84));
#58=CC_DESIGN_PERSON_AND_ORGANIZATION_ASSIGNMENT(#66,#62,(#86));
#59=CC_DESIGN_PERSON_AND_ORGANIZATION_ASSIGNMENT(#67,#63,(#84));
#60=CC_DESIGN_PERSON_AND_ORGANIZATION_ASSIGNMENT(#68,#64,(#31));
#61=PERSON_AND_ORGANIZATION_ROLE('creator');
#62=PERSON_AND_ORGANIZATION_ROLE('design_owner');
#63=PERSON_AND_ORGANIZATION_ROLE('design_supplier');
#64=PERSON_AND_ORGANIZATION_ROLE('classification_officer');
#65=PERSON_AND_ORGANIZATION(#79,#72);
#66=PERSON_AND_ORGANIZATION(#79,#73);
#67=PERSON_AND_ORGANIZATION(#79,#74);
#68=PERSON_AND_ORGANIZATION(#79,#75);
#69=PERSON_AND_ORGANIZATION(#79,#76);
#70=PERSON_AND_ORGANIZATION(#79,#77);
#71=PERSON_AND_ORGANIZATION(#79,#78);
#72=ORGANIZATION(' ',' ',' ');
#73=ORGANIZATION(' ',' ',' ');
#74=ORGANIZATION(' ',' ',' ');
#75=ORGANIZATION(' ',' ',' ');
#76=ORGANIZATION(' ',' ',' ');
#77=ORGANIZATION(' ',' ',' ');
#78=ORGANIZATION(' ',' ',' ');
#79=PERSON(' ',' ',' ',(' '),$,$);
#80=SHAPE_DEFINITION_REPRESENTATION(#81,#94);
#81=PRODUCT_DEFINITION_SHAPE('','',#82);
#82=PRODUCT_DEFINITION(' ','',#84,#83);
#83=DESIGN_CONTEXT('',#93,'design');
#84=PRODUCT_DEFINITION_FORMATION_WITH_SPECIFIED_SOURCE(' ',' ',#86,.NOT_KNOWN.);
#85=PRODUCT_RELATED_PRODUCT_CATEGORY('detail','',(#86));
#86=PRODUCT('3446_1_3D','3446_1_3D',' ',(#91));
#87=PRODUCT_CATEGORY_RELATIONSHIP(' ',' ',#89,#90);
#88=PRODUCT_CATEGORY_RELATIONSHIP('','',#90,#85);
#89=PRODUCT_CATEGORY('part',' ');
#90=PRODUCT_CATEGORY(' ','');
#91=MECHANICAL_CONTEXT(' ',#93,'mechanical');
#92=APPLICATION_PROTOCOL_DEFINITION('international standard',
'config_control_design',1994,#93);
#93=APPLICATION_CONTEXT(
'configuration controlled 3D designs of mechanical parts and assemblies');
#94=SHAPE_REPRESENTATION('3446_1_3D-None',(#404),#647);
#95=FACE_OUTER_BOUND('',#240,.T.);
#96=FACE_OUTER_BOUND('',#265,.T.);
#97=CONICAL_SURFACE('',#417,47.497504340607,22.4341625442996);
#98=CONICAL_SURFACE('',#420,47.497504340607,22.4341625442996);
#99=CONICAL_SURFACE('',#423,47.497504340607,22.4341625442996);
#100=CONICAL_SURFACE('',#426,47.5710429070911,19.2539717412588);
#101=CONICAL_SURFACE('',#431,36.8446160565707,81.6228411963148);
#102=CONICAL_SURFACE('',#434,48.7490559200498,89.8771588036852);
#103=CONICAL_SURFACE('',#436,48.8935932969519,0.746028258741274);
#104=CONICAL_SURFACE('',#440,48.9290301984393,1.06583745570046);
#105=CONICAL_SURFACE('',#441,48.9290301984393,1.06583745570046);
#106=CONICAL_SURFACE('',#442,48.9290301984393,1.06583745570046);
#107=CONICAL_SURFACE('',#444,48.9290301984393,1.06583745570046);
#108=CONICAL_SURFACE('',#446,47.497504340607,22.4341625442996);
#109=CONICAL_SURFACE('',#455,48.8213246085008,26.4300939266365);
#110=PRESENTATION_LAYER_ASSIGNMENT('1','Layer 1',(#127,#128));
#111=STYLED_ITEM('',(#113),#127);
#112=STYLED_ITEM('',(#114),#128);
#113=PRESENTATION_STYLE_ASSIGNMENT((#115));
#114=PRESENTATION_STYLE_ASSIGNMENT((#116));
#115=SURFACE_STYLE_USAGE(.BOTH.,#117);
#116=SURFACE_STYLE_USAGE(.BOTH.,#118);
#117=SURFACE_SIDE_STYLE('',(#119));
#118=SURFACE_SIDE_STYLE('',(#120));
#119=SURFACE_STYLE_FILL_AREA(#121);
#120=SURFACE_STYLE_FILL_AREA(#122);
#121=FILL_AREA_STYLE('',(#123));
#122=FILL_AREA_STYLE('',(#124));
#123=FILL_AREA_STYLE_COLOUR('',#125);
#124=FILL_AREA_STYLE_COLOUR('',#126);
#125=COLOUR_RGB('Light Gray',0.8,0.8,0.8);
#126=COLOUR_RGB('Medium Gray',0.490196078431373,0.490196078431373,0.490196078431373);
#127=MANIFOLD_SOLID_BREP('INSERT_BODY',#129);
#128=MANIFOLD_SOLID_BREP('TOOLBODY_SOLID',#130);
#129=CLOSED_SHELL('',(#141,#142,#143,#144,#145));
#130=CLOSED_SHELL('',(#146,#147,#148,#149,#150,#151,#152,#153,#154,#155,
#156,#157,#158,#159,#160,#161,#162,#163,#164,#165,#166,#167));
#131=TOROIDAL_SURFACE('',#414,49.6,0.4);
#132=TOROIDAL_SURFACE('',#437,48.2555104617025,0.5);
#133=TOROIDAL_SURFACE('',#438,29.8341928586732,3.);
#134=TOROIDAL_SURFACE('',#439,37.0611221093368,3.);
#135=TOROIDAL_SURFACE('',#456,44.5,2.);
#136=TOROIDAL_SURFACE('',#457,46.3213246085008,2.5);
#137=PLANE('',#409);
#138=PLANE('',#413);
#139=PLANE('',#428);
#140=PLANE('',#450);
#141=ADVANCED_FACE('',(#172,#173),#168,.T.);
#142=ADVANCED_FACE('',(#174,#175),#137,.F.);
#143=ADVANCED_FACE('',(#176,#177),#169,.F.);
#144=ADVANCED_FACE('',(#178,#179),#138,.F.);
#145=ADVANCED_FACE('',(#180,#181),#131,.T.);
#146=ADVANCED_FACE('',(#182,#183),#97,.T.);
#147=ADVANCED_FACE('',(#184,#185),#98,.T.);
#148=ADVANCED_FACE('',(#186,#187),#99,.T.);
#149=ADVANCED_FACE('',(#188,#189),#100,.T.);
#150=ADVANCED_FACE('SF5',(#95),#139,.F.);
#151=ADVANCED_FACE('SF3',(#190,#191),#101,.F.);
#152=ADVANCED_FACE('SF1',(#192,#193),#102,.T.);
#153=ADVANCED_FACE('S1',(#194,#195),#103,.T.);
#154=ADVANCED_FACE('',(#196,#197),#132,.T.);
#155=ADVANCED_FACE('SF4',(#198,#199),#133,.F.);
#156=ADVANCED_FACE('SF2',(#200,#201),#134,.T.);
#157=ADVANCED_FACE('S2',(#202,#203),#104,.T.);
#158=ADVANCED_FACE('S2',(#204,#205),#105,.T.);
#159=ADVANCED_FACE('S2',(#206,#207),#106,.T.);
#160=ADVANCED_FACE('S2',(#208,#209),#107,.T.);
#161=ADVANCED_FACE('',(#210,#211),#108,.T.);
#162=ADVANCED_FACE('CN_SU5',(#212,#213),#170,.T.);
#163=ADVANCED_FACE('',(#96),#140,.F.);
#164=ADVANCED_FACE('',(#214,#215),#171,.T.);
#165=ADVANCED_FACE('CN_SU3',(#216,#217),#109,.T.);
#166=ADVANCED_FACE('CN_SU2',(#218,#219),#135,.F.);
#167=ADVANCED_FACE('CN_SU4',(#220,#221),#136,.T.);
#168=CYLINDRICAL_SURFACE('',#407,50.);
#169=CYLINDRICAL_SURFACE('',#411,36.);
#170=CYLINDRICAL_SURFACE('',#448,48.8213246085008);
#171=CYLINDRICAL_SURFACE('',#452,42.5);
#172=FACE_BOUND('',#222,.T.);
#173=FACE_BOUND('',#223,.T.);
#174=FACE_BOUND('',#224,.T.);
#175=FACE_BOUND('',#225,.T.);
#176=FACE_BOUND('',#226,.T.);
#177=FACE_BOUND('',#227,.T.);
#178=FACE_BOUND('',#228,.T.);
#179=FACE_BOUND('',#229,.T.);
#180=FACE_BOUND('',#230,.T.);
#181=FACE_BOUND('',#231,.T.);
#182=FACE_BOUND('',#232,.T.);
#183=FACE_BOUND('',#233,.T.);
#184=FACE_BOUND('',#234,.T.);
#185=FACE_BOUND('',#235,.T.);
#186=FACE_BOUND('',#236,.T.);
#187=FACE_BOUND('',#237,.T.);
#188=FACE_BOUND('',#238,.T.);
#189=FACE_BOUND('',#239,.T.);
#190=FACE_BOUND('',#241,.T.);
#191=FACE_BOUND('',#242,.T.);
#192=FACE_BOUND('',#243,.T.);
#193=FACE_BOUND('',#244,.T.);
#194=FACE_BOUND('',#245,.T.);
#195=FACE_BOUND('',#246,.T.);
#196=FACE_BOUND('',#247,.T.);
#197=FACE_BOUND('',#248,.T.);
#198=FACE_BOUND('',#249,.T.);
#199=FACE_BOUND('',#250,.T.);
#200=FACE_BOUND('',#251,.T.);
#201=FACE_BOUND('',#252,.T.);
#202=FACE_BOUND('',#253,.T.);
#203=FACE_BOUND('',#254,.T.);
#204=FACE_BOUND('',#255,.T.);
#205=FACE_BOUND('',#256,.T.);
#206=FACE_BOUND('',#257,.T.);
#207=FACE_BOUND('',#258,.T.);
#208=FACE_BOUND('',#259,.T.);
#209=FACE_BOUND('',#260,.T.);
#210=FACE_BOUND('',#261,.T.);
#211=FACE_BOUND('',#262,.T.);
#212=FACE_BOUND('',#263,.T.);
#213=FACE_BOUND('',#264,.T.);
#214=FACE_BOUND('',#266,.T.);
#215=FACE_BOUND('',#267,.T.);
#216=FACE_BOUND('',#268,.T.);
#217=FACE_BOUND('',#269,.T.);
#218=FACE_BOUND('',#270,.T.);
#219=FACE_BOUND('',#271,.T.);
#220=FACE_BOUND('',#272,.T.);
#221=FACE_BOUND('',#273,.T.);
#222=EDGE_LOOP('',(#274));
#223=EDGE_LOOP('',(#275));
#224=EDGE_LOOP('',(#276));
#225=EDGE_LOOP('',(#277));
#226=EDGE_LOOP('',(#278));
#227=EDGE_LOOP('',(#279));
#228=EDGE_LOOP('',(#280));
#229=EDGE_LOOP('',(#281));
#230=EDGE_LOOP('',(#282));
#231=EDGE_LOOP('',(#283));
#232=EDGE_LOOP('',(#284));
#233=EDGE_LOOP('',(#285));
#234=EDGE_LOOP('',(#286));
#235=EDGE_LOOP('',(#287));
#236=EDGE_LOOP('',(#288));
#237=EDGE_LOOP('',(#289));
#238=EDGE_LOOP('',(#290));
#239=EDGE_LOOP('',(#291));
#240=EDGE_LOOP('',(#292));
#241=EDGE_LOOP('',(#293));
#242=EDGE_LOOP('',(#294));
#243=EDGE_LOOP('',(#295));
#244=EDGE_LOOP('',(#296));
#245=EDGE_LOOP('',(#297));
#246=EDGE_LOOP('',(#298));
#247=EDGE_LOOP('',(#299));
#248=EDGE_LOOP('',(#300));
#249=EDGE_LOOP('',(#301));
#250=EDGE_LOOP('',(#302));
#251=EDGE_LOOP('',(#303));
#252=EDGE_LOOP('',(#304));
#253=EDGE_LOOP('',(#305));
#254=EDGE_LOOP('',(#306));
#255=EDGE_LOOP('',(#307));
#256=EDGE_LOOP('',(#308));
#257=EDGE_LOOP('',(#309));
#258=EDGE_LOOP('',(#310));
#259=EDGE_LOOP('',(#311));
#260=EDGE_LOOP('',(#312));
#261=EDGE_LOOP('',(#313));
#262=EDGE_LOOP('',(#314));
#263=EDGE_LOOP('',(#315));
#264=EDGE_LOOP('',(#316));
#265=EDGE_LOOP('',(#317));
#266=EDGE_LOOP('',(#318));
#267=EDGE_LOOP('',(#319));
#268=EDGE_LOOP('',(#320));
#269=EDGE_LOOP('',(#321));
#270=EDGE_LOOP('',(#322));
#271=EDGE_LOOP('',(#323));
#272=EDGE_LOOP('',(#324));
#273=EDGE_LOOP('',(#325));
#274=ORIENTED_EDGE('',*,*,#352,.T.);
#275=ORIENTED_EDGE('',*,*,#353,.F.);
#276=ORIENTED_EDGE('',*,*,#354,.F.);
#277=ORIENTED_EDGE('',*,*,#353,.T.);
#278=ORIENTED_EDGE('',*,*,#355,.F.);
#279=ORIENTED_EDGE('',*,*,#354,.T.);
#280=ORIENTED_EDGE('',*,*,#356,.T.);
#281=ORIENTED_EDGE('',*,*,#355,.T.);
#282=ORIENTED_EDGE('',*,*,#356,.F.);
#283=ORIENTED_EDGE('',*,*,#352,.F.);
#284=ORIENTED_EDGE('',*,*,#357,.F.);
#285=ORIENTED_EDGE('',*,*,#358,.F.);
#286=ORIENTED_EDGE('',*,*,#359,.F.);
#287=ORIENTED_EDGE('',*,*,#360,.F.);
#288=ORIENTED_EDGE('',*,*,#361,.F.);
#289=ORIENTED_EDGE('',*,*,#362,.F.);
#290=ORIENTED_EDGE('',*,*,#363,.F.);
#291=ORIENTED_EDGE('',*,*,#364,.F.);
#292=ORIENTED_EDGE('',*,*,#365,.T.);
#293=ORIENTED_EDGE('',*,*,#366,.T.);
#294=ORIENTED_EDGE('',*,*,#367,.T.);
#295=ORIENTED_EDGE('',*,*,#368,.T.);
#296=ORIENTED_EDGE('',*,*,#369,.T.);
#297=ORIENTED_EDGE('',*,*,#370,.T.);
#298=ORIENTED_EDGE('',*,*,#363,.T.);
#299=ORIENTED_EDGE('',*,*,#370,.F.);
#300=ORIENTED_EDGE('',*,*,#369,.F.);
#301=ORIENTED_EDGE('',*,*,#366,.F.);
#302=ORIENTED_EDGE('',*,*,#365,.F.);
#303=ORIENTED_EDGE('',*,*,#368,.F.);
#304=ORIENTED_EDGE('',*,*,#367,.F.);
#305=ORIENTED_EDGE('',*,*,#361,.T.);
#306=ORIENTED_EDGE('',*,*,#364,.T.);
#307=ORIENTED_EDGE('',*,*,#359,.T.);
#308=ORIENTED_EDGE('',*,*,#362,.T.);
#309=ORIENTED_EDGE('',*,*,#357,.T.);
#310=ORIENTED_EDGE('',*,*,#360,.T.);
#311=ORIENTED_EDGE('',*,*,#371,.T.);
#312=ORIENTED_EDGE('',*,*,#358,.T.);
#313=ORIENTED_EDGE('',*,*,#372,.T.);
#314=ORIENTED_EDGE('',*,*,#371,.F.);
#315=ORIENTED_EDGE('',*,*,#373,.T.);
#316=ORIENTED_EDGE('',*,*,#372,.F.);
#317=ORIENTED_EDGE('',*,*,#374,.F.);
#318=ORIENTED_EDGE('',*,*,#375,.T.);
#319=ORIENTED_EDGE('',*,*,#374,.T.);
#320=ORIENTED_EDGE('',*,*,#376,.T.);
#321=ORIENTED_EDGE('',*,*,#377,.T.);
#322=ORIENTED_EDGE('',*,*,#375,.F.);
#323=ORIENTED_EDGE('',*,*,#377,.F.);
#324=ORIENTED_EDGE('',*,*,#376,.F.);
#325=ORIENTED_EDGE('',*,*,#373,.F.);
#326=VERTEX_POINT('',#568);
#327=VERTEX_POINT('',#570);
#328=VERTEX_POINT('',#573);
#329=VERTEX_POINT('',#576);
#330=VERTEX_POINT('',#579);
#331=VERTEX_POINT('',#583);
#332=VERTEX_POINT('',#585);
#333=VERTEX_POINT('',#588);
#334=VERTEX_POINT('',#590);
#335=VERTEX_POINT('',#593);
#336=VERTEX_POINT('',#595);
#337=VERTEX_POINT('',#598);
#338=VERTEX_POINT('',#600);
#339=VERTEX_POINT('',#603);
#340=VERTEX_POINT('',#606);
#341=VERTEX_POINT('',#608);
#342=VERTEX_POINT('',#611);
#343=VERTEX_POINT('',#613);
#344=VERTEX_POINT('',#616);
#345=VERTEX_POINT('',#625);
#346=VERTEX_POINT('',#628);
#347=VERTEX_POINT('',#631);
#348=VERTEX_POINT('',#634);
#349=VERTEX_POINT('',#637);
#350=VERTEX_POINT('',#640);
#351=VERTEX_POINT('',#642);
#352=EDGE_CURVE('',#326,#326,#378,.T.);
#353=EDGE_CURVE('',#327,#327,#379,.T.);
#354=EDGE_CURVE('',#328,#328,#380,.T.);
#355=EDGE_CURVE('',#329,#329,#381,.T.);
#356=EDGE_CURVE('',#330,#330,#382,.T.);
#357=EDGE_CURVE('',#331,#331,#383,.T.);
#358=EDGE_CURVE('',#332,#332,#384,.T.);
#359=EDGE_CURVE('',#333,#333,#385,.T.);
#360=EDGE_CURVE('',#334,#334,#386,.T.);
#361=EDGE_CURVE('',#335,#335,#387,.T.);
#362=EDGE_CURVE('',#336,#336,#388,.T.);
#363=EDGE_CURVE('',#337,#337,#389,.T.);
#364=EDGE_CURVE('',#338,#338,#390,.T.);
#365=EDGE_CURVE('',#339,#339,#391,.T.);
#366=EDGE_CURVE('',#340,#340,#392,.T.);
#367=EDGE_CURVE('',#341,#341,#393,.T.);
#368=EDGE_CURVE('',#342,#342,#394,.T.);
#369=EDGE_CURVE('',#343,#343,#395,.T.);
#370=EDGE_CURVE('',#344,#344,#396,.T.);
#371=EDGE_CURVE('',#345,#345,#397,.T.);
#372=EDGE_CURVE('',#346,#346,#398,.T.);
#373=EDGE_CURVE('',#347,#347,#399,.T.);
#374=EDGE_CURVE('',#348,#348,#400,.T.);
#375=EDGE_CURVE('',#349,#349,#401,.T.);
#376=EDGE_CURVE('',#350,#350,#402,.T.);
#377=EDGE_CURVE('',#351,#351,#403,.T.);
#378=CIRCLE('',#405,50.);
#379=CIRCLE('',#406,50.);
#380=CIRCLE('',#408,36.);
#381=CIRCLE('',#410,36.);
#382=CIRCLE('',#412,49.6);
#383=CIRCLE('',#415,48.9290301984393);
#384=CIRCLE('',#416,48.7189628591381);
#385=CIRCLE('',#418,48.9290301984393);
#386=CIRCLE('',#419,48.7189628591381);
#387=CIRCLE('',#421,48.9290301984393);
#388=CIRCLE('',#422,48.7189628591381);
#389=CIRCLE('',#424,48.8935932969519);
#390=CIRCLE('',#425,48.7189310988185);
#391=CIRCLE('',#427,29.8341928586732);
#392=CIRCLE('',#429,30.2712587772097);
#393=CIRCLE('',#430,36.6240561908003);
#394=CIRCLE('',#432,37.0675540544076);
#395=CIRCLE('',#433,48.2565824525477);
#396=CIRCLE('',#435,48.7554680779735);
#397=CIRCLE('',#443,48.9290301984393);
#398=CIRCLE('',#445,48.8213246085008);
#399=CIRCLE('',#447,48.8213246085008);
#400=CIRCLE('',#449,42.5);
#401=CIRCLE('',#451,42.5);
#402=CIRCLE('',#453,48.5600198518986);
#403=CIRCLE('',#454,42.7090438052818);
#404=AXIS2_PLACEMENT_3D('',#566,#458,#459);
#405=AXIS2_PLACEMENT_3D('',#567,#460,#461);
#406=AXIS2_PLACEMENT_3D('',#569,#462,#463);
#407=AXIS2_PLACEMENT_3D('',#571,#464,#465);
#408=AXIS2_PLACEMENT_3D('',#572,#466,#467);
#409=AXIS2_PLACEMENT_3D('',#574,#468,#469);
#410=AXIS2_PLACEMENT_3D('',#575,#470,#471);
#411=AXIS2_PLACEMENT_3D('',#577,#472,#473);
#412=AXIS2_PLACEMENT_3D('',#578,#474,#475);
#413=AXIS2_PLACEMENT_3D('',#580,#476,#477);
#414=AXIS2_PLACEMENT_3D('',#581,#478,#479);
#415=AXIS2_PLACEMENT_3D('',#582,#480,#481);
#416=AXIS2_PLACEMENT_3D('',#584,#482,#483);
#417=AXIS2_PLACEMENT_3D('',#586,#484,#485);
#418=AXIS2_PLACEMENT_3D('',#587,#486,#487);
#419=AXIS2_PLACEMENT_3D('',#589,#488,#489);
#420=AXIS2_PLACEMENT_3D('',#591,#490,#491);
#421=AXIS2_PLACEMENT_3D('',#592,#492,#493);
#422=AXIS2_PLACEMENT_3D('',#594,#494,#495);
#423=AXIS2_PLACEMENT_3D('',#596,#496,#497);
#424=AXIS2_PLACEMENT_3D('',#597,#498,#499);
#425=AXIS2_PLACEMENT_3D('',#599,#500,#501);
#426=AXIS2_PLACEMENT_3D('',#601,#502,#503);
#427=AXIS2_PLACEMENT_3D('',#602,#504,#505);
#428=AXIS2_PLACEMENT_3D('',#604,#506,#507);
#429=AXIS2_PLACEMENT_3D('',#605,#508,#509);
#430=AXIS2_PLACEMENT_3D('',#607,#510,#511);
#431=AXIS2_PLACEMENT_3D('',#609,#512,#513);
#432=AXIS2_PLACEMENT_3D('',#610,#514,#515);
#433=AXIS2_PLACEMENT_3D('',#612,#516,#517);
#434=AXIS2_PLACEMENT_3D('',#614,#518,#519);
#435=AXIS2_PLACEMENT_3D('',#615,#520,#521);
#436=AXIS2_PLACEMENT_3D('',#617,#522,#523);
#437=AXIS2_PLACEMENT_3D('',#618,#524,#525);
#438=AXIS2_PLACEMENT_3D('',#619,#526,#527);
#439=AXIS2_PLACEMENT_3D('',#620,#528,#529);
#440=AXIS2_PLACEMENT_3D('',#621,#530,#531);
#441=AXIS2_PLACEMENT_3D('',#622,#532,#533);
#442=AXIS2_PLACEMENT_3D('',#623,#534,#535);
#443=AXIS2_PLACEMENT_3D('',#624,#536,#537);
#444=AXIS2_PLACEMENT_3D('',#626,#538,#539);
#445=AXIS2_PLACEMENT_3D('',#627,#540,#541);
#446=AXIS2_PLACEMENT_3D('',#629,#542,#543);
#447=AXIS2_PLACEMENT_3D('',#630,#544,#545);
#448=AXIS2_PLACEMENT_3D('',#632,#546,#547);
#449=AXIS2_PLACEMENT_3D('',#633,#548,#549);
#450=AXIS2_PLACEMENT_3D('',#635,#550,#551);
#451=AXIS2_PLACEMENT_3D('',#636,#552,#553);
#452=AXIS2_PLACEMENT_3D('',#638,#554,#555);
#453=AXIS2_PLACEMENT_3D('',#639,#556,#557);
#454=AXIS2_PLACEMENT_3D('',#641,#558,#559);
#455=AXIS2_PLACEMENT_3D('',#643,#560,#561);
#456=AXIS2_PLACEMENT_3D('',#644,#562,#563);
#457=AXIS2_PLACEMENT_3D('',#645,#564,#565);
#458=DIRECTION('',(0.,0.,1.));
#459=DIRECTION('',(1.,0.,0.));
#460=DIRECTION('',(0.,0.,1.));
#461=DIRECTION('',(1.,0.,0.));
#462=DIRECTION('',(0.,0.,1.));
#463=DIRECTION('',(1.,0.,0.));
#464=DIRECTION('',(0.,0.,1.));
#465=DIRECTION('',(1.,0.,0.));
#466=DIRECTION('',(0.,0.,1.));
#467=DIRECTION('',(1.,0.,0.));
#468=DIRECTION('',(0.,0.,-1.));
#469=DIRECTION('',(-1.,0.,0.));
#470=DIRECTION('',(0.,0.,1.));
#471=DIRECTION('',(1.,0.,0.));
#472=DIRECTION('',(0.,0.,1.));
#473=DIRECTION('',(1.,0.,0.));
#474=DIRECTION('',(0.,0.,-1.));
#475=DIRECTION('',(1.,0.,0.));
#476=DIRECTION('',(0.,0.,1.));
#477=DIRECTION('',(1.,0.,0.));
#478=DIRECTION('',(0.,0.,1.));
#479=DIRECTION('',(1.,0.,0.));
#480=DIRECTION('',(0.,0.,-1.));
#481=DIRECTION('',(-0.829037572555042,-0.559192903470747,0.));
#482=DIRECTION('',(0.,0.,1.));
#483=DIRECTION('',(1.,0.,0.));
#484=DIRECTION('',(0.,0.,-1.));
#485=DIRECTION('',(-0.829037572555042,-0.559192903470747,0.));
#486=DIRECTION('',(0.,0.,-1.));
#487=DIRECTION('',(-0.956304755963035,-0.292371704722737,0.));
#488=DIRECTION('',(0.,0.,1.));
#489=DIRECTION('',(1.,0.,0.));
#490=DIRECTION('',(0.,0.,-1.));
#491=DIRECTION('',(-0.956304755963035,-0.292371704722737,-6.02903065327473E-017));
#492=DIRECTION('',(0.,0.,-1.));
#493=DIRECTION('',(-1.,0.,0.));
#494=DIRECTION('',(0.,0.,1.));
#495=DIRECTION('',(1.,0.,0.));
#496=DIRECTION('',(0.,0.,-1.));
#497=DIRECTION('',(-1.,0.,-1.35653189698681E-016));
#498=DIRECTION('',(0.,0.,-1.));
#499=DIRECTION('',(-1.,0.,0.));
#500=DIRECTION('',(0.,0.,1.));
#501=DIRECTION('',(1.,0.,0.));
#502=DIRECTION('',(0.,0.,-1.));
#503=DIRECTION('',(-1.,0.,1.04905751143168E-016));
#504=DIRECTION('',(0.,0.,-1.));
#505=DIRECTION('',(1.,0.,0.));
#506=DIRECTION('',(0.,0.,1.));
#507=DIRECTION('',(1.,0.,0.));
#508=DIRECTION('',(0.,0.,1.));
#509=DIRECTION('',(-1.,0.,0.));
#510=DIRECTION('',(0.,0.,-1.));
#511=DIRECTION('',(1.,0.,0.));
#512=DIRECTION('',(0.,0.,-1.));
#513=DIRECTION('',(-1.,0.,-6.09783677588969E-018));
#514=DIRECTION('',(0.,0.,1.));
#515=DIRECTION('',(-1.,0.,0.));
#516=DIRECTION('',(0.,0.,-1.));
#517=DIRECTION('',(-1.,0.,0.));
#518=DIRECTION('',(0.,0.,1.));
#519=DIRECTION('',(1.,0.,8.92520456508243E-020));
#520=DIRECTION('',(0.,0.,1.));
#521=DIRECTION('',(-1.,0.,0.));
#522=DIRECTION('',(0.,0.,1.));
#523=DIRECTION('',(1.,0.,-8.96570627711892E-016));
#524=DIRECTION('',(0.,0.,1.));
#525=DIRECTION('',(1.,0.,0.));
#526=DIRECTION('',(0.,0.,1.));
#527=DIRECTION('',(1.,0.,0.));
#528=DIRECTION('',(0.,0.,1.));
#529=DIRECTION('',(1.,0.,0.));
#530=DIRECTION('',(0.,0.,1.));
#531=DIRECTION('',(1.,0.,0.));
#532=DIRECTION('',(0.,0.,1.));
#533=DIRECTION('',(0.956304755963035,0.292371704722737,4.10989440955059E-016));
#534=DIRECTION('',(0.,0.,1.));
#535=DIRECTION('',(0.829037572555042,0.559192903470747,-6.16484161432589E-016));
#536=DIRECTION('',(0.,0.,-1.));
#537=DIRECTION('',(-0.629320391049838,-0.777145961456971,0.));
#538=DIRECTION('',(0.,0.,1.));
#539=DIRECTION('',(0.629320391049838,0.777145961456971,-1.02747360238765E-016));
#540=DIRECTION('',(0.,0.,-1.));
#541=DIRECTION('',(-1.,0.,0.));
#542=DIRECTION('',(0.,0.,-1.));
#543=DIRECTION('',(-0.629320391049838,-0.777145961456971,9.04354597991209E-017));
#544=DIRECTION('',(0.,0.,-1.));
#545=DIRECTION('',(1.,0.,0.));
#546=DIRECTION('',(0.,0.,-1.));
#547=DIRECTION('',(-1.,0.,0.));
#548=DIRECTION('',(0.,0.,-1.));
#549=DIRECTION('',(-1.,0.,0.));
#550=DIRECTION('',(0.,0.,-1.));
#551=DIRECTION('',(-1.,0.,0.));
#552=DIRECTION('',(0.,0.,1.));
#553=DIRECTION('',(-1.,0.,0.));
#554=DIRECTION('',(0.,0.,-1.));
#555=DIRECTION('',(-1.,0.,0.));
#556=DIRECTION('',(0.,0.,1.));
#557=DIRECTION('',(1.,0.,0.));
#558=DIRECTION('',(0.,0.,-1.));
#559=DIRECTION('',(-1.,0.,0.));
#560=DIRECTION('',(0.,0.,-1.));
#561=DIRECTION('',(-1.,0.,-6.35568980483892E-018));
#562=DIRECTION('',(0.,0.,-1.));
#563=DIRECTION('',(-1.,0.,0.));
#564=DIRECTION('',(0.,0.,1.));
#565=DIRECTION('',(1.,0.,0.));
#566=CARTESIAN_POINT('',(0.,0.,0.));
#567=CARTESIAN_POINT('',(0.,0.,-89.6));
#568=CARTESIAN_POINT('',(50.,0.,-89.6));
#569=CARTESIAN_POINT('',(0.,0.,-29.));
#570=CARTESIAN_POINT('',(50.,0.,-29.));
#571=CARTESIAN_POINT('',(0.,0.,35.7057520950812));
#572=CARTESIAN_POINT('',(0.,0.,-29.));
#573=CARTESIAN_POINT('',(36.,0.,-29.));
#574=CARTESIAN_POINT('',(-50.,0.,-29.));
#575=CARTESIAN_POINT('',(0.,0.,-90.));
#576=CARTESIAN_POINT('',(36.,0.,-90.));
#577=CARTESIAN_POINT('',(0.,0.,35.7057520950812));
#578=CARTESIAN_POINT('',(0.,0.,-90.));
#579=CARTESIAN_POINT('',(49.6,0.,-90.));
#580=CARTESIAN_POINT('',(-36.,0.,-90.));
#581=CARTESIAN_POINT('',(0.,0.,-89.6));
#582=CARTESIAN_POINT('',(-7.03899027313911E-017,1.04357322366969E-016,-41.9870994324759));
#583=CARTESIAN_POINT('',(-40.5640044231865,-27.3607664606732,-41.9870994324759));
#584=CARTESIAN_POINT('',(-7.03899027313911E-017,1.04357322366969E-016,-41.4782991521472));
#585=CARTESIAN_POINT('',(48.7189628591381,1.04357322366969E-016,-41.4782991521472));
#586=CARTESIAN_POINT('',(-7.03899027313911E-017,1.04357322366969E-016,-38.5198266989535));
#587=CARTESIAN_POINT('',(-3.68030705130739E-017,1.20377419555944E-016,-53.7870994324759));
#588=CARTESIAN_POINT('',(-46.7910642834265,-14.305463969548,-53.7870994324759));
#589=CARTESIAN_POINT('',(-3.68030705130739E-017,1.20377419555944E-016,-53.2782991521472));
#590=CARTESIAN_POINT('',(48.7189628591381,1.20377419555944E-016,-53.2782991521472));
#591=CARTESIAN_POINT('',(-3.68030705130739E-017,1.20377419555944E-016,-50.3198266989535));
#592=CARTESIAN_POINT('',(0.,0.,-65.5870994324759));
#593=CARTESIAN_POINT('',(-48.9290301984393,0.,-65.5870994324759));
#594=CARTESIAN_POINT('',(0.,0.,-65.0782991521472));
#595=CARTESIAN_POINT('',(48.7189628591381,0.,-65.0782991521472));
#596=CARTESIAN_POINT('',(0.,0.,-62.1198266989535));
#597=CARTESIAN_POINT('',(0.,0.,-77.3800506386092));
#598=CARTESIAN_POINT('',(-48.8935932969519,0.,-77.3800506386092));
#599=CARTESIAN_POINT('',(0.,0.,-76.8800062814555));
#600=CARTESIAN_POINT('',(48.7189310988185,0.,-76.8800062814555));
#601=CARTESIAN_POINT('',(0.,0.,-73.5936912169993));
#602=CARTESIAN_POINT('',(0.,0.,-87.5055735983695));
#603=CARTESIAN_POINT('',(29.8341928586732,0.,-87.5055735983695));
#604=CARTESIAN_POINT('',(-30.0538978903537,0.,-87.5055735983695));
#605=CARTESIAN_POINT('',(0.,0.,-87.537582125529));
#606=CARTESIAN_POINT('',(-30.2712587772097,0.,-87.537582125529));
#607=CARTESIAN_POINT('',(0.,0.,-88.4730939901201));
#608=CARTESIAN_POINT('',(36.6240561908003,0.,-88.4730939901201));
#609=CARTESIAN_POINT('',(0.,0.,-88.5055735983695));
#610=CARTESIAN_POINT('',(0.,0.,-88.5050956222855));
#611=CARTESIAN_POINT('',(-37.0675540544076,0.,-88.5050956222855));
#612=CARTESIAN_POINT('',(0.,0.,-88.4811064951332));
#613=CARTESIAN_POINT('',(-48.2565824525477,0.,-88.4811064951332));
#614=CARTESIAN_POINT('',(0.,0.,-88.4800506386092));
#615=CARTESIAN_POINT('',(0.,0.,-87.9876177850569));
#616=CARTESIAN_POINT('',(-48.7554680779735,0.,-87.9876177850569));
#617=CARTESIAN_POINT('',(0.,0.,-77.3800506386092));
#618=CARTESIAN_POINT('',(0.,0.,-87.9811076442989));
#619=CARTESIAN_POINT('',(0.,0.,-90.5055735983695));
#620=CARTESIAN_POINT('',(0.,0.,-85.5051025172797));
#621=CARTESIAN_POINT('',(0.,0.,-65.5870994324759));
#622=CARTESIAN_POINT('',(-3.68030705130739E-017,1.20377419555944E-016,-53.7870994324759));
#623=CARTESIAN_POINT('',(-7.03899027313911E-017,1.04357322366969E-016,-41.9870994324759));
#624=CARTESIAN_POINT('',(-9.78253269945357E-017,7.92173878422556E-017,-30.1870994324759));
#625=CARTESIAN_POINT('',(-30.7920364181712,-38.0249982167233,-30.1870994324759));
#626=CARTESIAN_POINT('',(-9.78253269945357E-017,7.92173878422556E-017,-30.1870994324759));
#627=CARTESIAN_POINT('',(-9.78253269945357E-017,7.92173878422556E-017,-29.9262276827981));
#628=CARTESIAN_POINT('',(-48.8213246085008,7.92173878422556E-017,-29.9262276827981));
#629=CARTESIAN_POINT('',(-9.78253269945357E-017,7.92173878422556E-017,-26.7198266989535));
#630=CARTESIAN_POINT('',(0.,0.,-27.7741618474925));
#631=CARTESIAN_POINT('',(48.8213246085008,0.,-27.7741618474925));
#632=CARTESIAN_POINT('',(0.,0.,21.1348153402073));
#633=CARTESIAN_POINT('',(0.,0.,0.));
#634=CARTESIAN_POINT('',(-42.5,0.,0.));
#635=CARTESIAN_POINT('',(0.,0.,0.));
#636=CARTESIAN_POINT('',(0.,0.,-14.));
#637=CARTESIAN_POINT('',(-42.5,0.,-14.));
#638=CARTESIAN_POINT('',(0.,0.,21.1348153402073));
#639=CARTESIAN_POINT('',(0.,0.,-26.6613978980458));
#640=CARTESIAN_POINT('',(48.5600198518986,0.,-26.6613978980458));
#641=CARTESIAN_POINT('',(0.,0.,-14.8902111595574));
#642=CARTESIAN_POINT('',(-42.7090438052818,0.,-14.8902111595574));
#643=CARTESIAN_POINT('',(0.,0.,-27.1870994324759));
#644=CARTESIAN_POINT('',(0.,0.,-14.));
#645=CARTESIAN_POINT('',(0.,0.,-27.7741618474925));
#646=MECHANICAL_DESIGN_GEOMETRIC_PRESENTATION_REPRESENTATION('',(#111,#112),
#647);
#647=(
GEOMETRIC_REPRESENTATION_CONTEXT(3)
GLOBAL_UNCERTAINTY_ASSIGNED_CONTEXT((#648))
GLOBAL_UNIT_ASSIGNED_CONTEXT((#654,#650,#649))
REPRESENTATION_CONTEXT('3446_1_3D','TOP_LEVEL_ASSEMBLY_PART')
);
#648=UNCERTAINTY_MEASURE_WITH_UNIT(LENGTH_MEASURE(2.E-005),#654,
'DISTANCE_ACCURACY_VALUE','Maximum Tolerance applied to model');
#649=(
NAMED_UNIT(*)
SI_UNIT($,.STERADIAN.)
SOLID_ANGLE_UNIT()
);
#650=(
CONVERSION_BASED_UNIT('DEGREE',#652)
NAMED_UNIT(#651)
PLANE_ANGLE_UNIT()
);
#651=DIMENSIONAL_EXPONENTS(0.,0.,0.,0.,0.,0.,0.);
#652=PLANE_ANGLE_MEASURE_WITH_UNIT(PLANE_ANGLE_MEASURE(0.0174532925),#653);
#653=(
NAMED_UNIT(*)
PLANE_ANGLE_UNIT()
SI_UNIT($,.RADIAN.)
);
#654=(
LENGTH_UNIT()
NAMED_UNIT(*)
SI_UNIT(.MILLI.,.METRE.)
);
ENDSEC;
END-ISO-10303-21;
