ISO-10303-21;
HEADER;
/* Generated by software containing ST-Developer
 * from STEP Tools, Inc. (www.steptools.com) 
 */
/* OPTION: using custom schema-name function */

FILE_DESCRIPTION(
/* description */ ('3-D model version:1'),
/* implementation_level */ '2;1');

FILE_NAME(
/* name */ '690-080Q32-1461M',
/* time_stamp */ '2014-06-17T15:59:08+02:00',
/* author */ ('CappDp'),
/* organization */ ('AB Sandvik Coromant'),
/* preprocessor_version */ 'ST-DEVELOPER v11',
/* originating_system */ 'SIEMENS UGS NX 6.0',
/* authorisation */ '');

FILE_SCHEMA (('AP203_CONFIGURATION_CONTROLLED_3D_DESIGN_OF_MECHANICAL_PARTS_AND_ASSEMBLIES_MIM_LF'));
ENDSEC;

DATA;
#10=SHAPE_REPRESENTATION_RELATIONSHIP('None',
'relationship between 3449_1_3D-None and 3449_1_3D-None',#94,#11);
#11=ADVANCED_BREP_SHAPE_REPRESENTATION('3449_1_3D-None',(#112,#113),#667);
#12=CC_DESIGN_APPROVAL(#24,(#82));
#13=CC_DESIGN_APPROVAL(#25,(#84));
#14=CC_DESIGN_APPROVAL(#26,(#31));
#15=APPROVAL_PERSON_ORGANIZATION(#69,#24,#18);
#16=APPROVAL_PERSON_ORGANIZATION(#70,#25,#19);
#17=APPROVAL_PERSON_ORGANIZATION(#71,#26,#20);
#18=APPROVAL_ROLE('approver');
#19=APPROVAL_ROLE('approver');
#20=APPROVAL_ROLE('approver');
#21=APPROVAL_DATE_TIME(#39,#24);
#22=APPROVAL_DATE_TIME(#40,#25);
#23=APPROVAL_DATE_TIME(#41,#26);
#24=APPROVAL(#27,' ');
#25=APPROVAL(#28,' ');
#26=APPROVAL(#29,' ');
#27=APPROVAL_STATUS('not_yet_approved');
#28=APPROVAL_STATUS('not_yet_approved');
#29=APPROVAL_STATUS('not_yet_approved');
#30=CC_DESIGN_SECURITY_CLASSIFICATION(#31,(#84));
#31=SECURITY_CLASSIFICATION(' ',' ',#32);
#32=SECURITY_CLASSIFICATION_LEVEL('confidential');
#33=CC_DESIGN_DATE_AND_TIME_ASSIGNMENT(#37,#35,(#82));
#34=CC_DESIGN_DATE_AND_TIME_ASSIGNMENT(#38,#36,(#31));
#35=DATE_TIME_ROLE('creation_date');
#36=DATE_TIME_ROLE('classification_date');
#37=DATE_AND_TIME(#52,#42);
#38=DATE_AND_TIME(#53,#43);
#39=DATE_AND_TIME(#54,#44);
#40=DATE_AND_TIME(#55,#45);
#41=DATE_AND_TIME(#56,#46);
#42=LOCAL_TIME(0,0,0.,#47);
#43=LOCAL_TIME(0,0,0.,#48);
#44=LOCAL_TIME(0,0,0.,#49);
#45=LOCAL_TIME(0,0,0.,#50);
#46=LOCAL_TIME(0,0,0.,#51);
#47=COORDINATED_UNIVERSAL_TIME_OFFSET(0,0,.BEHIND.);
#48=COORDINATED_UNIVERSAL_TIME_OFFSET(0,0,.BEHIND.);
#49=COORDINATED_UNIVERSAL_TIME_OFFSET(0,0,.BEHIND.);
#50=COORDINATED_UNIVERSAL_TIME_OFFSET(0,0,.BEHIND.);
#51=COORDINATED_UNIVERSAL_TIME_OFFSET(0,0,.BEHIND.);
#52=CALENDAR_DATE(0,1,1);
#53=CALENDAR_DATE(0,1,1);
#54=CALENDAR_DATE(0,1,1);
#55=CALENDAR_DATE(0,1,1);
#56=CALENDAR_DATE(0,1,1);
#57=CC_DESIGN_PERSON_AND_ORGANIZATION_ASSIGNMENT(#65,#61,(#82,#84));
#58=CC_DESIGN_PERSON_AND_ORGANIZATION_ASSIGNMENT(#66,#62,(#86));
#59=CC_DESIGN_PERSON_AND_ORGANIZATION_ASSIGNMENT(#67,#63,(#84));
#60=CC_DESIGN_PERSON_AND_ORGANIZATION_ASSIGNMENT(#68,#64,(#31));
#61=PERSON_AND_ORGANIZATION_ROLE('creator');
#62=PERSON_AND_ORGANIZATION_ROLE('design_owner');
#63=PERSON_AND_ORGANIZATION_ROLE('design_supplier');
#64=PERSON_AND_ORGANIZATION_ROLE('classification_officer');
#65=PERSON_AND_ORGANIZATION(#79,#72);
#66=PERSON_AND_ORGANIZATION(#79,#73);
#67=PERSON_AND_ORGANIZATION(#79,#74);
#68=PERSON_AND_ORGANIZATION(#79,#75);
#69=PERSON_AND_ORGANIZATION(#79,#76);
#70=PERSON_AND_ORGANIZATION(#79,#77);
#71=PERSON_AND_ORGANIZATION(#79,#78);
#72=ORGANIZATION(' ',' ',' ');
#73=ORGANIZATION(' ',' ',' ');
#74=ORGANIZATION(' ',' ',' ');
#75=ORGANIZATION(' ',' ',' ');
#76=ORGANIZATION(' ',' ',' ');
#77=ORGANIZATION(' ',' ',' ');
#78=ORGANIZATION(' ',' ',' ');
#79=PERSON(' ',' ',' ',(' '),$,$);
#80=SHAPE_DEFINITION_REPRESENTATION(#81,#94);
#81=PRODUCT_DEFINITION_SHAPE('','',#82);
#82=PRODUCT_DEFINITION(' ','',#84,#83);
#83=DESIGN_CONTEXT('',#93,'design');
#84=PRODUCT_DEFINITION_FORMATION_WITH_SPECIFIED_SOURCE(' ',' ',#86,.NOT_KNOWN.);
#85=PRODUCT_RELATED_PRODUCT_CATEGORY('detail','',(#86));
#86=PRODUCT('3449_1_3D','3449_1_3D',' ',(#91));
#87=PRODUCT_CATEGORY_RELATIONSHIP(' ',' ',#89,#90);
#88=PRODUCT_CATEGORY_RELATIONSHIP('','',#90,#85);
#89=PRODUCT_CATEGORY('part',' ');
#90=PRODUCT_CATEGORY(' ','');
#91=MECHANICAL_CONTEXT(' ',#93,'mechanical');
#92=APPLICATION_PROTOCOL_DEFINITION('international standard',
'config_control_design',1994,#93);
#93=APPLICATION_CONTEXT(
'configuration controlled 3D designs of mechanical parts and assemblies');
#94=SHAPE_REPRESENTATION('3449_1_3D-None',(#415),#667);
#95=PRESENTATION_LAYER_ASSIGNMENT('1','Layer 1',(#112,#113));
#96=STYLED_ITEM('',(#98),#112);
#97=STYLED_ITEM('',(#99),#113);
#98=PRESENTATION_STYLE_ASSIGNMENT((#100));
#99=PRESENTATION_STYLE_ASSIGNMENT((#101));
#100=SURFACE_STYLE_USAGE(.BOTH.,#102);
#101=SURFACE_STYLE_USAGE(.BOTH.,#103);
#102=SURFACE_SIDE_STYLE('',(#104));
#103=SURFACE_SIDE_STYLE('',(#105));
#104=SURFACE_STYLE_FILL_AREA(#106);
#105=SURFACE_STYLE_FILL_AREA(#107);
#106=FILL_AREA_STYLE('',(#108));
#107=FILL_AREA_STYLE('',(#109));
#108=FILL_AREA_STYLE_COLOUR('',#110);
#109=FILL_AREA_STYLE_COLOUR('',#111);
#110=COLOUR_RGB('Medium Gray',0.490196078431373,0.490196078431373,0.490196078431373);
#111=COLOUR_RGB('Light Gray',0.8,0.8,0.8);
#112=MANIFOLD_SOLID_BREP('TOOLBODY_SOLID',#114);
#113=MANIFOLD_SOLID_BREP('INSERT_BODY',#115);
#114=CLOSED_SHELL('',(#132,#133,#134,#135,#136,#137,#138,#139,#140,#141,
#142,#143,#144,#145,#146,#147,#148,#149,#150,#151,#152,#153,#154));
#115=CLOSED_SHELL('',(#155,#156,#157,#158,#159));
#116=CYLINDRICAL_SURFACE('',#451,38.8933566276219);
#117=CYLINDRICAL_SURFACE('',#455,40.);
#118=CYLINDRICAL_SURFACE('',#463,40.);
#119=CYLINDRICAL_SURFACE('',#467,26.);
#120=TOROIDAL_SURFACE('',#438,38.3107287206996,0.5);
#121=TOROIDAL_SURFACE('',#439,19.9457926973696,3.);
#122=TOROIDAL_SURFACE('',#440,27.173173069681,3.);
#123=TOROIDAL_SURFACE('',#459,38.,2.);
#124=TOROIDAL_SURFACE('',#460,41.3933566276219,2.5);
#125=TOROIDAL_SURFACE('',#470,39.6,0.4);
#126=PLANE('',#429);
#127=PLANE('',#453);
#128=PLANE('',#465);
#129=PLANE('',#469);
#130=FACE_OUTER_BOUND('',#234,.T.);
#131=FACE_OUTER_BOUND('',#261,.T.);
#132=ADVANCED_FACE('',(#174,#175),#160,.T.);
#133=ADVANCED_FACE('',(#176,#177),#161,.T.);
#134=ADVANCED_FACE('',(#178,#179),#162,.T.);
#135=ADVANCED_FACE('',(#180,#181),#163,.T.);
#136=ADVANCED_FACE('SF5',(#130),#126,.F.);
#137=ADVANCED_FACE('SF3',(#182,#183),#164,.F.);
#138=ADVANCED_FACE('SF1',(#184,#185),#165,.T.);
#139=ADVANCED_FACE('S1',(#186,#187),#166,.T.);
#140=ADVANCED_FACE('',(#188,#189),#120,.T.);
#141=ADVANCED_FACE('SF4',(#190,#191),#121,.F.);
#142=ADVANCED_FACE('SF2',(#192,#193),#122,.T.);
#143=ADVANCED_FACE('',(#194,#195),#167,.T.);
#144=ADVANCED_FACE('S2',(#196,#197),#168,.T.);
#145=ADVANCED_FACE('S2',(#198,#199),#169,.T.);
#146=ADVANCED_FACE('S2',(#200,#201),#170,.T.);
#147=ADVANCED_FACE('S2',(#202,#203),#171,.T.);
#148=ADVANCED_FACE('',(#204,#205),#172,.T.);
#149=ADVANCED_FACE('CN_SU5',(#206,#207),#116,.T.);
#150=ADVANCED_FACE('',(#131),#127,.F.);
#151=ADVANCED_FACE('',(#208,#209),#117,.T.);
#152=ADVANCED_FACE('CN_SU3',(#210,#211),#173,.T.);
#153=ADVANCED_FACE('CN_SU2',(#212,#213),#123,.T.);
#154=ADVANCED_FACE('CN_SU4',(#214,#215),#124,.F.);
#155=ADVANCED_FACE('',(#216,#217),#118,.T.);
#156=ADVANCED_FACE('',(#218,#219),#128,.F.);
#157=ADVANCED_FACE('',(#220,#221),#119,.F.);
#158=ADVANCED_FACE('',(#222,#223),#129,.F.);
#159=ADVANCED_FACE('',(#224,#225),#125,.T.);
#160=CONICAL_SURFACE('',#418,37.2116064357574,27.6622188584855);
#161=CONICAL_SURFACE('',#421,37.2116064357574,27.6622188584855);
#162=CONICAL_SURFACE('',#424,37.2116064357574,27.6622188584855);
#163=CONICAL_SURFACE('',#427,37.2932413431036,24.0635661249213);
#164=CONICAL_SURFACE('',#432,26.9566987845401,81.6234478177757);
#165=CONICAL_SURFACE('',#435,38.8026401584083,89.8765521822244);
#166=CONICAL_SURFACE('',#437,38.9840730968355,0.936433875078732);
#167=CONICAL_SURFACE('',#442,38.764620715815,89.8243940212929);
#168=CONICAL_SURFACE('',#443,39.0285088185752,1.33778114151453);
#169=CONICAL_SURFACE('',#444,39.0285088185752,1.33778114151453);
#170=CONICAL_SURFACE('',#445,39.0285088185752,1.33778114151453);
#171=CONICAL_SURFACE('',#447,39.0285088185752,1.33778114151453);
#172=CONICAL_SURFACE('',#449,37.2116064357574,27.6622188584855);
#173=CONICAL_SURFACE('',#458,38.8933566276219,3.03963539050288);
#174=FACE_BOUND('',#226,.T.);
#175=FACE_BOUND('',#227,.T.);
#176=FACE_BOUND('',#228,.T.);
#177=FACE_BOUND('',#229,.T.);
#178=FACE_BOUND('',#230,.T.);
#179=FACE_BOUND('',#231,.T.);
#180=FACE_BOUND('',#232,.T.);
#181=FACE_BOUND('',#233,.T.);
#182=FACE_BOUND('',#235,.T.);
#183=FACE_BOUND('',#236,.T.);
#184=FACE_BOUND('',#237,.T.);
#185=FACE_BOUND('',#238,.T.);
#186=FACE_BOUND('',#239,.T.);
#187=FACE_BOUND('',#240,.T.);
#188=FACE_BOUND('',#241,.T.);
#189=FACE_BOUND('',#242,.T.);
#190=FACE_BOUND('',#243,.T.);
#191=FACE_BOUND('',#244,.T.);
#192=FACE_BOUND('',#245,.T.);
#193=FACE_BOUND('',#246,.T.);
#194=FACE_BOUND('',#247,.T.);
#195=FACE_BOUND('',#248,.T.);
#196=FACE_BOUND('',#249,.T.);
#197=FACE_BOUND('',#250,.T.);
#198=FACE_BOUND('',#251,.T.);
#199=FACE_BOUND('',#252,.T.);
#200=FACE_BOUND('',#253,.T.);
#201=FACE_BOUND('',#254,.T.);
#202=FACE_BOUND('',#255,.T.);
#203=FACE_BOUND('',#256,.T.);
#204=FACE_BOUND('',#257,.T.);
#205=FACE_BOUND('',#258,.T.);
#206=FACE_BOUND('',#259,.T.);
#207=FACE_BOUND('',#260,.T.);
#208=FACE_BOUND('',#262,.T.);
#209=FACE_BOUND('',#263,.T.);
#210=FACE_BOUND('',#264,.T.);
#211=FACE_BOUND('',#265,.T.);
#212=FACE_BOUND('',#266,.T.);
#213=FACE_BOUND('',#267,.T.);
#214=FACE_BOUND('',#268,.T.);
#215=FACE_BOUND('',#269,.T.);
#216=FACE_BOUND('',#270,.T.);
#217=FACE_BOUND('',#271,.T.);
#218=FACE_BOUND('',#272,.T.);
#219=FACE_BOUND('',#273,.T.);
#220=FACE_BOUND('',#274,.T.);
#221=FACE_BOUND('',#275,.T.);
#222=FACE_BOUND('',#276,.T.);
#223=FACE_BOUND('',#277,.T.);
#224=FACE_BOUND('',#278,.T.);
#225=FACE_BOUND('',#279,.T.);
#226=EDGE_LOOP('',(#280));
#227=EDGE_LOOP('',(#281));
#228=EDGE_LOOP('',(#282));
#229=EDGE_LOOP('',(#283));
#230=EDGE_LOOP('',(#284));
#231=EDGE_LOOP('',(#285));
#232=EDGE_LOOP('',(#286));
#233=EDGE_LOOP('',(#287));
#234=EDGE_LOOP('',(#288));
#235=EDGE_LOOP('',(#289));
#236=EDGE_LOOP('',(#290));
#237=EDGE_LOOP('',(#291));
#238=EDGE_LOOP('',(#292));
#239=EDGE_LOOP('',(#293));
#240=EDGE_LOOP('',(#294));
#241=EDGE_LOOP('',(#295));
#242=EDGE_LOOP('',(#296));
#243=EDGE_LOOP('',(#297));
#244=EDGE_LOOP('',(#298));
#245=EDGE_LOOP('',(#299));
#246=EDGE_LOOP('',(#300));
#247=EDGE_LOOP('',(#301));
#248=EDGE_LOOP('',(#302));
#249=EDGE_LOOP('',(#303));
#250=EDGE_LOOP('',(#304));
#251=EDGE_LOOP('',(#305));
#252=EDGE_LOOP('',(#306));
#253=EDGE_LOOP('',(#307));
#254=EDGE_LOOP('',(#308));
#255=EDGE_LOOP('',(#309));
#256=EDGE_LOOP('',(#310));
#257=EDGE_LOOP('',(#311));
#258=EDGE_LOOP('',(#312));
#259=EDGE_LOOP('',(#313));
#260=EDGE_LOOP('',(#314));
#261=EDGE_LOOP('',(#315));
#262=EDGE_LOOP('',(#316));
#263=EDGE_LOOP('',(#317));
#264=EDGE_LOOP('',(#318));
#265=EDGE_LOOP('',(#319));
#266=EDGE_LOOP('',(#320));
#267=EDGE_LOOP('',(#321));
#268=EDGE_LOOP('',(#322));
#269=EDGE_LOOP('',(#323));
#270=EDGE_LOOP('',(#324));
#271=EDGE_LOOP('',(#325));
#272=EDGE_LOOP('',(#326));
#273=EDGE_LOOP('',(#327));
#274=EDGE_LOOP('',(#328));
#275=EDGE_LOOP('',(#329));
#276=EDGE_LOOP('',(#330));
#277=EDGE_LOOP('',(#331));
#278=EDGE_LOOP('',(#332));
#279=EDGE_LOOP('',(#333));
#280=ORIENTED_EDGE('',*,*,#361,.F.);
#281=ORIENTED_EDGE('',*,*,#362,.F.);
#282=ORIENTED_EDGE('',*,*,#363,.F.);
#283=ORIENTED_EDGE('',*,*,#364,.F.);
#284=ORIENTED_EDGE('',*,*,#365,.F.);
#285=ORIENTED_EDGE('',*,*,#366,.F.);
#286=ORIENTED_EDGE('',*,*,#367,.F.);
#287=ORIENTED_EDGE('',*,*,#368,.F.);
#288=ORIENTED_EDGE('',*,*,#369,.T.);
#289=ORIENTED_EDGE('',*,*,#370,.T.);
#290=ORIENTED_EDGE('',*,*,#371,.T.);
#291=ORIENTED_EDGE('',*,*,#372,.T.);
#292=ORIENTED_EDGE('',*,*,#373,.T.);
#293=ORIENTED_EDGE('',*,*,#374,.T.);
#294=ORIENTED_EDGE('',*,*,#367,.T.);
#295=ORIENTED_EDGE('',*,*,#374,.F.);
#296=ORIENTED_EDGE('',*,*,#373,.F.);
#297=ORIENTED_EDGE('',*,*,#370,.F.);
#298=ORIENTED_EDGE('',*,*,#369,.F.);
#299=ORIENTED_EDGE('',*,*,#372,.F.);
#300=ORIENTED_EDGE('',*,*,#371,.F.);
#301=ORIENTED_EDGE('',*,*,#375,.T.);
#302=ORIENTED_EDGE('',*,*,#368,.T.);
#303=ORIENTED_EDGE('',*,*,#375,.F.);
#304=ORIENTED_EDGE('',*,*,#365,.T.);
#305=ORIENTED_EDGE('',*,*,#363,.T.);
#306=ORIENTED_EDGE('',*,*,#366,.T.);
#307=ORIENTED_EDGE('',*,*,#361,.T.);
#308=ORIENTED_EDGE('',*,*,#364,.T.);
#309=ORIENTED_EDGE('',*,*,#376,.T.);
#310=ORIENTED_EDGE('',*,*,#362,.T.);
#311=ORIENTED_EDGE('',*,*,#377,.T.);
#312=ORIENTED_EDGE('',*,*,#376,.F.);
#313=ORIENTED_EDGE('',*,*,#378,.T.);
#314=ORIENTED_EDGE('',*,*,#377,.F.);
#315=ORIENTED_EDGE('',*,*,#379,.F.);
#316=ORIENTED_EDGE('',*,*,#380,.T.);
#317=ORIENTED_EDGE('',*,*,#379,.T.);
#318=ORIENTED_EDGE('',*,*,#381,.T.);
#319=ORIENTED_EDGE('',*,*,#382,.T.);
#320=ORIENTED_EDGE('',*,*,#380,.F.);
#321=ORIENTED_EDGE('',*,*,#382,.F.);
#322=ORIENTED_EDGE('',*,*,#381,.F.);
#323=ORIENTED_EDGE('',*,*,#378,.F.);
#324=ORIENTED_EDGE('',*,*,#383,.T.);
#325=ORIENTED_EDGE('',*,*,#384,.F.);
#326=ORIENTED_EDGE('',*,*,#385,.F.);
#327=ORIENTED_EDGE('',*,*,#384,.T.);
#328=ORIENTED_EDGE('',*,*,#386,.F.);
#329=ORIENTED_EDGE('',*,*,#385,.T.);
#330=ORIENTED_EDGE('',*,*,#387,.T.);
#331=ORIENTED_EDGE('',*,*,#386,.T.);
#332=ORIENTED_EDGE('',*,*,#387,.F.);
#333=ORIENTED_EDGE('',*,*,#383,.F.);
#334=VERTEX_POINT('',#585);
#335=VERTEX_POINT('',#587);
#336=VERTEX_POINT('',#590);
#337=VERTEX_POINT('',#592);
#338=VERTEX_POINT('',#595);
#339=VERTEX_POINT('',#597);
#340=VERTEX_POINT('',#600);
#341=VERTEX_POINT('',#602);
#342=VERTEX_POINT('',#605);
#343=VERTEX_POINT('',#608);
#344=VERTEX_POINT('',#610);
#345=VERTEX_POINT('',#613);
#346=VERTEX_POINT('',#615);
#347=VERTEX_POINT('',#618);
#348=VERTEX_POINT('',#624);
#349=VERTEX_POINT('',#630);
#350=VERTEX_POINT('',#633);
#351=VERTEX_POINT('',#636);
#352=VERTEX_POINT('',#639);
#353=VERTEX_POINT('',#642);
#354=VERTEX_POINT('',#645);
#355=VERTEX_POINT('',#647);
#356=VERTEX_POINT('',#652);
#357=VERTEX_POINT('',#654);
#358=VERTEX_POINT('',#657);
#359=VERTEX_POINT('',#660);
#360=VERTEX_POINT('',#663);
#361=EDGE_CURVE('',#334,#334,#388,.T.);
#362=EDGE_CURVE('',#335,#335,#389,.T.);
#363=EDGE_CURVE('',#336,#336,#390,.T.);
#364=EDGE_CURVE('',#337,#337,#391,.T.);
#365=EDGE_CURVE('',#338,#338,#392,.T.);
#366=EDGE_CURVE('',#339,#339,#393,.T.);
#367=EDGE_CURVE('',#340,#340,#394,.T.);
#368=EDGE_CURVE('',#341,#341,#395,.T.);
#369=EDGE_CURVE('',#342,#342,#396,.T.);
#370=EDGE_CURVE('',#343,#343,#397,.T.);
#371=EDGE_CURVE('',#344,#344,#398,.T.);
#372=EDGE_CURVE('',#345,#345,#399,.T.);
#373=EDGE_CURVE('',#346,#346,#400,.T.);
#374=EDGE_CURVE('',#347,#347,#401,.T.);
#375=EDGE_CURVE('',#348,#348,#402,.T.);
#376=EDGE_CURVE('',#349,#349,#403,.T.);
#377=EDGE_CURVE('',#350,#350,#404,.T.);
#378=EDGE_CURVE('',#351,#351,#405,.T.);
#379=EDGE_CURVE('',#352,#352,#406,.T.);
#380=EDGE_CURVE('',#353,#353,#407,.T.);
#381=EDGE_CURVE('',#354,#354,#408,.T.);
#382=EDGE_CURVE('',#355,#355,#409,.T.);
#383=EDGE_CURVE('',#356,#356,#410,.T.);
#384=EDGE_CURVE('',#357,#357,#411,.T.);
#385=EDGE_CURVE('',#358,#358,#412,.T.);
#386=EDGE_CURVE('',#359,#359,#413,.T.);
#387=EDGE_CURVE('',#360,#360,#414,.T.);
#388=CIRCLE('',#416,39.0285088185752);
#389=CIRCLE('',#417,38.7646976030957);
#390=CIRCLE('',#419,39.0285088185752);
#391=CIRCLE('',#420,38.7646976030957);
#392=CIRCLE('',#422,39.0285088185752);
#393=CIRCLE('',#423,38.7646976030957);
#394=CIRCLE('',#425,38.9840730968355);
#395=CIRCLE('',#426,38.7639423738314);
#396=CIRCLE('',#428,19.9457926973696);
#397=CIRCLE('',#430,20.3828271921479);
#398=CIRCLE('',#431,26.7361385749027);
#399=CIRCLE('',#433,27.1796367773038);
#400=CIRCLE('',#434,38.3118060053034);
#401=CIRCLE('',#436,38.8106619417924);
#402=CIRCLE('',#441,38.764620715815);
#403=CIRCLE('',#446,39.0285088185752);
#404=CIRCLE('',#448,38.8933566276219);
#405=CIRCLE('',#450,38.8933566276219);
#406=CIRCLE('',#452,40.);
#407=CIRCLE('',#454,40.);
#408=CIRCLE('',#456,38.8968738989452);
#409=CIRCLE('',#457,39.9971861829414);
#410=CIRCLE('',#461,40.);
#411=CIRCLE('',#462,40.);
#412=CIRCLE('',#464,26.);
#413=CIRCLE('',#466,26.);
#414=CIRCLE('',#468,39.6);
#415=AXIS2_PLACEMENT_3D('',#583,#471,#472);
#416=AXIS2_PLACEMENT_3D('',#584,#473,#474);
#417=AXIS2_PLACEMENT_3D('',#586,#475,#476);
#418=AXIS2_PLACEMENT_3D('',#588,#477,#478);
#419=AXIS2_PLACEMENT_3D('',#589,#479,#480);
#420=AXIS2_PLACEMENT_3D('',#591,#481,#482);
#421=AXIS2_PLACEMENT_3D('',#593,#483,#484);
#422=AXIS2_PLACEMENT_3D('',#594,#485,#486);
#423=AXIS2_PLACEMENT_3D('',#596,#487,#488);
#424=AXIS2_PLACEMENT_3D('',#598,#489,#490);
#425=AXIS2_PLACEMENT_3D('',#599,#491,#492);
#426=AXIS2_PLACEMENT_3D('',#601,#493,#494);
#427=AXIS2_PLACEMENT_3D('',#603,#495,#496);
#428=AXIS2_PLACEMENT_3D('',#604,#497,#498);
#429=AXIS2_PLACEMENT_3D('',#606,#499,#500);
#430=AXIS2_PLACEMENT_3D('',#607,#501,#502);
#431=AXIS2_PLACEMENT_3D('',#609,#503,#504);
#432=AXIS2_PLACEMENT_3D('',#611,#505,#506);
#433=AXIS2_PLACEMENT_3D('',#612,#507,#508);
#434=AXIS2_PLACEMENT_3D('',#614,#509,#510);
#435=AXIS2_PLACEMENT_3D('',#616,#511,#512);
#436=AXIS2_PLACEMENT_3D('',#617,#513,#514);
#437=AXIS2_PLACEMENT_3D('',#619,#515,#516);
#438=AXIS2_PLACEMENT_3D('',#620,#517,#518);
#439=AXIS2_PLACEMENT_3D('',#621,#519,#520);
#440=AXIS2_PLACEMENT_3D('',#622,#521,#522);
#441=AXIS2_PLACEMENT_3D('',#623,#523,#524);
#442=AXIS2_PLACEMENT_3D('',#625,#525,#526);
#443=AXIS2_PLACEMENT_3D('',#626,#527,#528);
#444=AXIS2_PLACEMENT_3D('',#627,#529,#530);
#445=AXIS2_PLACEMENT_3D('',#628,#531,#532);
#446=AXIS2_PLACEMENT_3D('',#629,#533,#534);
#447=AXIS2_PLACEMENT_3D('',#631,#535,#536);
#448=AXIS2_PLACEMENT_3D('',#632,#537,#538);
#449=AXIS2_PLACEMENT_3D('',#634,#539,#540);
#450=AXIS2_PLACEMENT_3D('',#635,#541,#542);
#451=AXIS2_PLACEMENT_3D('',#637,#543,#544);
#452=AXIS2_PLACEMENT_3D('',#638,#545,#546);
#453=AXIS2_PLACEMENT_3D('',#640,#547,#548);
#454=AXIS2_PLACEMENT_3D('',#641,#549,#550);
#455=AXIS2_PLACEMENT_3D('',#643,#551,#552);
#456=AXIS2_PLACEMENT_3D('',#644,#553,#554);
#457=AXIS2_PLACEMENT_3D('',#646,#555,#556);
#458=AXIS2_PLACEMENT_3D('',#648,#557,#558);
#459=AXIS2_PLACEMENT_3D('',#649,#559,#560);
#460=AXIS2_PLACEMENT_3D('',#650,#561,#562);
#461=AXIS2_PLACEMENT_3D('',#651,#563,#564);
#462=AXIS2_PLACEMENT_3D('',#653,#565,#566);
#463=AXIS2_PLACEMENT_3D('',#655,#567,#568);
#464=AXIS2_PLACEMENT_3D('',#656,#569,#570);
#465=AXIS2_PLACEMENT_3D('',#658,#571,#572);
#466=AXIS2_PLACEMENT_3D('',#659,#573,#574);
#467=AXIS2_PLACEMENT_3D('',#661,#575,#576);
#468=AXIS2_PLACEMENT_3D('',#662,#577,#578);
#469=AXIS2_PLACEMENT_3D('',#664,#579,#580);
#470=AXIS2_PLACEMENT_3D('',#665,#581,#582);
#471=DIRECTION('',(0.,0.,1.));
#472=DIRECTION('',(1.,0.,0.));
#473=DIRECTION('',(0.,0.,-1.));
#474=DIRECTION('',(-0.702153052995162,-0.712026045990997,0.));
#475=DIRECTION('',(0.,0.,1.));
#476=DIRECTION('',(1.,0.,0.));
#477=DIRECTION('',(0.,0.,-1.));
#478=DIRECTION('',(-0.702153052995162,-0.712026045990997,1.73045150795703E-016));
#479=DIRECTION('',(0.,0.,-1.));
#480=DIRECTION('',(-0.922538089456246,-0.385906042324319,0.));
#481=DIRECTION('',(0.,0.,1.));
#482=DIRECTION('',(1.,0.,0.));
#483=DIRECTION('',(0.,0.,-1.));
#484=DIRECTION('',(-0.922538089456246,-0.385906042324319,9.88829433118301E-017));
#485=DIRECTION('',(0.,0.,-1.));
#486=DIRECTION('',(-1.,0.,0.));
#487=DIRECTION('',(0.,0.,1.));
#488=DIRECTION('',(1.,0.,0.));
#489=DIRECTION('',(0.,0.,-1.));
#490=DIRECTION('',(-1.,0.,4.9441471655915E-017));
#491=DIRECTION('',(0.,0.,-1.));
#492=DIRECTION('',(-1.,0.,0.));
#493=DIRECTION('',(0.,0.,1.));
#494=DIRECTION('',(1.,0.,0.));
#495=DIRECTION('',(0.,0.,-1.));
#496=DIRECTION('',(-1.,0.,5.73637781557809E-017));
#497=DIRECTION('',(0.,0.,-1.));
#498=DIRECTION('',(1.,0.,0.));
#499=DIRECTION('',(0.,0.,1.));
#500=DIRECTION('',(1.,0.,0.));
#501=DIRECTION('',(0.,0.,1.));
#502=DIRECTION('',(-1.,0.,0.));
#503=DIRECTION('',(0.,0.,-1.));
#504=DIRECTION('',(1.,0.,0.));
#505=DIRECTION('',(0.,0.,-1.));
#506=DIRECTION('',(-1.,0.,-8.1416451831157E-018));
#507=DIRECTION('',(0.,0.,1.));
#508=DIRECTION('',(-1.,0.,0.));
#509=DIRECTION('',(0.,0.,-1.));
#510=DIRECTION('',(-1.,0.,0.));
#511=DIRECTION('',(0.,0.,1.));
#512=DIRECTION('',(1.,0.,8.96946722889522E-020));
#513=DIRECTION('',(0.,0.,1.));
#514=DIRECTION('',(-1.,0.,0.));
#515=DIRECTION('',(0.,0.,1.));
#516=DIRECTION('',(1.,0.,7.52463903763187E-016));
#517=DIRECTION('',(0.,0.,1.));
#518=DIRECTION('',(1.,0.,0.));
#519=DIRECTION('',(0.,0.,1.));
#520=DIRECTION('',(1.,0.,0.));
#521=DIRECTION('',(0.,0.,1.));
#522=DIRECTION('',(1.,0.,0.));
#523=DIRECTION('',(0.,0.,-1.));
#524=DIRECTION('',(-1.,0.,0.));
#525=DIRECTION('',(0.,0.,1.));
#526=DIRECTION('',(1.,0.,8.50582940772011E-020));
#527=DIRECTION('',(0.,0.,1.));
#528=DIRECTION('',(1.,0.,0.));
#529=DIRECTION('',(0.,0.,1.));
#530=DIRECTION('',(0.922538089456246,0.385906042324319,4.44933242755751E-016));
#531=DIRECTION('',(0.,0.,1.));
#532=DIRECTION('',(0.702153052995162,0.712026045990997,-6.67399864133627E-016));
#533=DIRECTION('',(0.,0.,-1.));
#534=DIRECTION('',(-0.372987782575809,-0.92783625389892,0.));
#535=DIRECTION('',(0.,0.,1.));
#536=DIRECTION('',(0.372987782575809,0.92783625389892,-1.11233310688938E-016));
#537=DIRECTION('',(0.,0.,-1.));
#538=DIRECTION('',(-1.,0.,0.));
#539=DIRECTION('',(0.,0.,-1.));
#540=DIRECTION('',(-0.372987782575809,-0.92783625389892,-1.60684782881724E-016));
#541=DIRECTION('',(0.,0.,-1.));
#542=DIRECTION('',(-1.,0.,0.));
#543=DIRECTION('',(0.,0.,-1.));
#544=DIRECTION('',(-1.,0.,0.));
#545=DIRECTION('',(0.,0.,-1.));
#546=DIRECTION('',(-1.,0.,0.));
#547=DIRECTION('',(0.,0.,-1.));
#548=DIRECTION('',(-1.,0.,0.));
#549=DIRECTION('',(0.,0.,1.));
#550=DIRECTION('',(1.,0.,0.));
#551=DIRECTION('',(0.,0.,-1.));
#552=DIRECTION('',(-1.,0.,0.));
#553=DIRECTION('',(0.,0.,1.));
#554=DIRECTION('',(1.,0.,0.));
#555=DIRECTION('',(0.,0.,-1.));
#556=DIRECTION('',(-1.,0.,0.));
#557=DIRECTION('',(0.,0.,1.));
#558=DIRECTION('',(1.,0.,0.));
#559=DIRECTION('',(0.,0.,1.));
#560=DIRECTION('',(1.,0.,0.));
#561=DIRECTION('',(0.,0.,-1.));
#562=DIRECTION('',(-1.,0.,0.));
#563=DIRECTION('',(0.,0.,1.));
#564=DIRECTION('',(1.,0.,0.));
#565=DIRECTION('',(0.,0.,1.));
#566=DIRECTION('',(1.,0.,0.));
#567=DIRECTION('',(0.,0.,1.));
#568=DIRECTION('',(1.,0.,0.));
#569=DIRECTION('',(0.,0.,1.));
#570=DIRECTION('',(1.,0.,0.));
#571=DIRECTION('',(0.,0.,-1.));
#572=DIRECTION('',(-1.,0.,0.));
#573=DIRECTION('',(0.,0.,1.));
#574=DIRECTION('',(1.,0.,0.));
#575=DIRECTION('',(0.,0.,1.));
#576=DIRECTION('',(1.,0.,0.));
#577=DIRECTION('',(0.,0.,-1.));
#578=DIRECTION('',(1.,0.,0.));
#579=DIRECTION('',(0.,0.,1.));
#580=DIRECTION('',(1.,0.,0.));
#581=DIRECTION('',(0.,0.,1.));
#582=DIRECTION('',(1.,0.,0.));
#583=CARTESIAN_POINT('',(0.,0.,0.));
#584=CARTESIAN_POINT('',(-8.96281834201516E-017,8.83853940136139E-017,-49.987099432476));
#585=CARTESIAN_POINT('',(-27.4039866208112,-27.7893148150148,-49.987099432476));
#586=CARTESIAN_POINT('',(-8.96281834201516E-017,8.83853940136139E-017,-49.4838070283713));
#587=CARTESIAN_POINT('',(38.7646976030957,8.83853940136139E-017,-49.4838070283713));
#588=CARTESIAN_POINT('',(-8.96281834201516E-017,8.83853940136139E-017,-46.5208587474087));
#589=CARTESIAN_POINT('',(-4.85769554907914E-017,1.16126950073546E-016,-61.787099432476));
#590=CARTESIAN_POINT('',(-36.0052859598146,-15.0613373759961,-61.787099432476));
#591=CARTESIAN_POINT('',(-4.85769554907914E-017,1.16126950073546E-016,-61.2838070283713));
#592=CARTESIAN_POINT('',(38.7646976030957,1.16126950073546E-016,-61.2838070283713));
#593=CARTESIAN_POINT('',(-4.85769554907914E-017,1.16126950073546E-016,-58.3208587474087));
#594=CARTESIAN_POINT('',(0.,0.,-73.587099432476));
#595=CARTESIAN_POINT('',(-39.0285088185752,0.,-73.587099432476));
#596=CARTESIAN_POINT('',(0.,0.,-73.0838070283713));
#597=CARTESIAN_POINT('',(38.7646976030957,0.,-73.0838070283713));
#598=CARTESIAN_POINT('',(0.,0.,-70.1208587474087));
#599=CARTESIAN_POINT('',(0.,0.,-85.3800506386092));
#600=CARTESIAN_POINT('',(-38.9840730968355,0.,-85.3800506386092));
#601=CARTESIAN_POINT('',(0.,0.,-84.8871015115345));
#602=CARTESIAN_POINT('',(38.7639423738314,0.,-84.8871015115345));
#603=CARTESIAN_POINT('',(0.,0.,-81.5936912169992));
#604=CARTESIAN_POINT('',(0.,0.,-95.5055735983695));
#605=CARTESIAN_POINT('',(19.9457926973696,0.,-95.5055735983695));
#606=CARTESIAN_POINT('',(-20.1654817625663,0.,-95.5055735983695));
#607=CARTESIAN_POINT('',(0.,0.,-95.5375774982417));
#608=CARTESIAN_POINT('',(-20.3828271921479,0.,-95.5375774982417));
#609=CARTESIAN_POINT('',(0.,0.,-96.4730963253087));
#610=CARTESIAN_POINT('',(26.7361385749027,0.,-96.4730963253087));
#611=CARTESIAN_POINT('',(0.,0.,-96.5055735983695));
#612=CARTESIAN_POINT('',(0.,0.,-96.5050932619202));
#613=CARTESIAN_POINT('',(-27.1796367773038,0.,-96.5050932619202));
#614=CARTESIAN_POINT('',(0.,0.,-96.4811081772162));
#615=CARTESIAN_POINT('',(-38.3118060053034,0.,-96.4811081772162));
#616=CARTESIAN_POINT('',(0.,0.,-96.4800506386092));
#617=CARTESIAN_POINT('',(0.,0.,-95.9892809011218));
#618=CARTESIAN_POINT('',(-38.8106619417924,0.,-95.9892809011218));
#619=CARTESIAN_POINT('',(0.,0.,-85.3800506386092));
#620=CARTESIAN_POINT('',(0.,0.,-95.9811093377597));
#621=CARTESIAN_POINT('',(0.,0.,-98.5055735983695));
#622=CARTESIAN_POINT('',(0.,0.,-93.5051002251809));
#623=CARTESIAN_POINT('',(0.,0.,-84.887099432476));
#624=CARTESIAN_POINT('',(-38.764620715815,0.,-84.887099432476));
#625=CARTESIAN_POINT('',(0.,0.,-84.887099432476));
#626=CARTESIAN_POINT('',(0.,0.,-73.587099432476));
#627=CARTESIAN_POINT('',(-4.85769554907914E-017,1.16126950073546E-016,-61.787099432476));
#628=CARTESIAN_POINT('',(-8.96281834201516E-017,8.83853940136139E-017,-49.987099432476));
#629=CARTESIAN_POINT('',(-1.1679387069693E-016,4.69508349847682E-017,-38.187099432476));
#630=CARTESIAN_POINT('',(-14.5571569614808,-36.2120654174878,-38.187099432476));
#631=CARTESIAN_POINT('',(-1.1679387069693E-016,4.69508349847682E-017,-38.187099432476));
#632=CARTESIAN_POINT('',(-1.1679387069693E-016,4.69508349847682E-017,-37.929259480595));
#633=CARTESIAN_POINT('',(-38.8933566276219,4.69508349847682E-017,-37.929259480595));
#634=CARTESIAN_POINT('',(-1.1679387069693E-016,4.69508349847682E-017,-34.7208587474087));
#635=CARTESIAN_POINT('',(0.,0.,-35.2534295472854));
#636=CARTESIAN_POINT('',(-38.8933566276219,0.,-35.2534295472854));
#637=CARTESIAN_POINT('',(0.,0.,21.1348153402073));
#638=CARTESIAN_POINT('',(0.,0.,0.));
#639=CARTESIAN_POINT('',(-40.,0.,0.));
#640=CARTESIAN_POINT('',(0.,0.,0.));
#641=CARTESIAN_POINT('',(0.,0.,-14.2938718163051));
#642=CARTESIAN_POINT('',(40.,0.,-14.2938718163051));
#643=CARTESIAN_POINT('',(0.,0.,21.1348153402073));
#644=CARTESIAN_POINT('',(0.,0.,-35.1208626380708));
#645=CARTESIAN_POINT('',(38.8968738989452,0.,-35.1208626380708));
#646=CARTESIAN_POINT('',(0.,0.,-14.3999253436768));
#647=CARTESIAN_POINT('',(-39.9971861829414,0.,-14.3999253436768));
#648=CARTESIAN_POINT('',(0.,0.,-35.187099432476));
#649=CARTESIAN_POINT('',(0.,0.,-14.2938718163051));
#650=CARTESIAN_POINT('',(0.,0.,-35.2534295472854));
#651=CARTESIAN_POINT('',(0.,0.,-97.6));
#652=CARTESIAN_POINT('',(40.,0.,-97.6));
#653=CARTESIAN_POINT('',(0.,0.,-37.));
#654=CARTESIAN_POINT('',(40.,0.,-37.));
#655=CARTESIAN_POINT('',(0.,0.,35.7057520950812));
#656=CARTESIAN_POINT('',(0.,0.,-37.));
#657=CARTESIAN_POINT('',(26.,0.,-37.));
#658=CARTESIAN_POINT('',(-40.,0.,-37.));
#659=CARTESIAN_POINT('',(0.,0.,-98.));
#660=CARTESIAN_POINT('',(26.,0.,-98.));
#661=CARTESIAN_POINT('',(0.,0.,35.7057520950812));
#662=CARTESIAN_POINT('',(0.,0.,-98.));
#663=CARTESIAN_POINT('',(39.6,0.,-98.));
#664=CARTESIAN_POINT('',(-26.,0.,-98.));
#665=CARTESIAN_POINT('',(0.,0.,-97.6));
#666=MECHANICAL_DESIGN_GEOMETRIC_PRESENTATION_REPRESENTATION('',(#96,#97),
#667);
#667=(
GEOMETRIC_REPRESENTATION_CONTEXT(3)
GLOBAL_UNCERTAINTY_ASSIGNED_CONTEXT((#668))
GLOBAL_UNIT_ASSIGNED_CONTEXT((#674,#670,#669))
REPRESENTATION_CONTEXT('3449_1_3D','TOP_LEVEL_ASSEMBLY_PART')
);
#668=UNCERTAINTY_MEASURE_WITH_UNIT(LENGTH_MEASURE(2.E-005),#674,
'DISTANCE_ACCURACY_VALUE','Maximum Tolerance applied to model');
#669=(
NAMED_UNIT(*)
SI_UNIT($,.STERADIAN.)
SOLID_ANGLE_UNIT()
);
#670=(
CONVERSION_BASED_UNIT('DEGREE',#672)
NAMED_UNIT(#671)
PLANE_ANGLE_UNIT()
);
#671=DIMENSIONAL_EXPONENTS(0.,0.,0.,0.,0.,0.,0.);
#672=PLANE_ANGLE_MEASURE_WITH_UNIT(PLANE_ANGLE_MEASURE(0.0174532925),#673);
#673=(
NAMED_UNIT(*)
PLANE_ANGLE_UNIT()
SI_UNIT($,.RADIAN.)
);
#674=(
LENGTH_UNIT()
NAMED_UNIT(*)
SI_UNIT(.MILLI.,.METRE.)
);
ENDSEC;
END-ISO-10303-21;
