ISO-10303-21;
HEADER;
/* Generated by software containing ST-Developer
 * from STEP Tools, Inc. (www.steptools.com) 
 */
/* OPTION: using custom schema-name function */

FILE_DESCRIPTION(
/* description */ ('3-D model version:1'),
/* implementation_level */ '2;1');

FILE_NAME(
/* name */ '690-063Q27-1449H',
/* time_stamp */ '2014-06-17T15:58:55+02:00',
/* author */ ('CappDp'),
/* organization */ ('AB Sandvik Coromant'),
/* preprocessor_version */ 'ST-DEVELOPER v11',
/* originating_system */ 'SIEMENS UGS NX 6.0',
/* authorisation */ '');

FILE_SCHEMA (('AP203_CONFIGURATION_CONTROLLED_3D_DESIGN_OF_MECHANICAL_PARTS_AND_ASSEMBLIES_MIM_LF'));
ENDSEC;

DATA;
#10=SHAPE_REPRESENTATION_RELATIONSHIP('None',
'relationship between 3453_1_3D-None and 3453_1_3D-None',#94,#11);
#11=ADVANCED_BREP_SHAPE_REPRESENTATION('3453_1_3D-None',(#125,#126),#607);
#12=CC_DESIGN_APPROVAL(#24,(#82));
#13=CC_DESIGN_APPROVAL(#25,(#84));
#14=CC_DESIGN_APPROVAL(#26,(#31));
#15=APPROVAL_PERSON_ORGANIZATION(#69,#24,#18);
#16=APPROVAL_PERSON_ORGANIZATION(#70,#25,#19);
#17=APPROVAL_PERSON_ORGANIZATION(#71,#26,#20);
#18=APPROVAL_ROLE('approver');
#19=APPROVAL_ROLE('approver');
#20=APPROVAL_ROLE('approver');
#21=APPROVAL_DATE_TIME(#39,#24);
#22=APPROVAL_DATE_TIME(#40,#25);
#23=APPROVAL_DATE_TIME(#41,#26);
#24=APPROVAL(#27,' ');
#25=APPROVAL(#28,' ');
#26=APPROVAL(#29,' ');
#27=APPROVAL_STATUS('not_yet_approved');
#28=APPROVAL_STATUS('not_yet_approved');
#29=APPROVAL_STATUS('not_yet_approved');
#30=CC_DESIGN_SECURITY_CLASSIFICATION(#31,(#84));
#31=SECURITY_CLASSIFICATION(' ',' ',#32);
#32=SECURITY_CLASSIFICATION_LEVEL('confidential');
#33=CC_DESIGN_DATE_AND_TIME_ASSIGNMENT(#37,#35,(#82));
#34=CC_DESIGN_DATE_AND_TIME_ASSIGNMENT(#38,#36,(#31));
#35=DATE_TIME_ROLE('creation_date');
#36=DATE_TIME_ROLE('classification_date');
#37=DATE_AND_TIME(#52,#42);
#38=DATE_AND_TIME(#53,#43);
#39=DATE_AND_TIME(#54,#44);
#40=DATE_AND_TIME(#55,#45);
#41=DATE_AND_TIME(#56,#46);
#42=LOCAL_TIME(0,0,0.,#47);
#43=LOCAL_TIME(0,0,0.,#48);
#44=LOCAL_TIME(0,0,0.,#49);
#45=LOCAL_TIME(0,0,0.,#50);
#46=LOCAL_TIME(0,0,0.,#51);
#47=COORDINATED_UNIVERSAL_TIME_OFFSET(0,0,.BEHIND.);
#48=COORDINATED_UNIVERSAL_TIME_OFFSET(0,0,.BEHIND.);
#49=COORDINATED_UNIVERSAL_TIME_OFFSET(0,0,.BEHIND.);
#50=COORDINATED_UNIVERSAL_TIME_OFFSET(0,0,.BEHIND.);
#51=COORDINATED_UNIVERSAL_TIME_OFFSET(0,0,.BEHIND.);
#52=CALENDAR_DATE(0,1,1);
#53=CALENDAR_DATE(0,1,1);
#54=CALENDAR_DATE(0,1,1);
#55=CALENDAR_DATE(0,1,1);
#56=CALENDAR_DATE(0,1,1);
#57=CC_DESIGN_PERSON_AND_ORGANIZATION_ASSIGNMENT(#65,#61,(#82,#84));
#58=CC_DESIGN_PERSON_AND_ORGANIZATION_ASSIGNMENT(#66,#62,(#86));
#59=CC_DESIGN_PERSON_AND_ORGANIZATION_ASSIGNMENT(#67,#63,(#84));
#60=CC_DESIGN_PERSON_AND_ORGANIZATION_ASSIGNMENT(#68,#64,(#31));
#61=PERSON_AND_ORGANIZATION_ROLE('creator');
#62=PERSON_AND_ORGANIZATION_ROLE('design_owner');
#63=PERSON_AND_ORGANIZATION_ROLE('design_supplier');
#64=PERSON_AND_ORGANIZATION_ROLE('classification_officer');
#65=PERSON_AND_ORGANIZATION(#79,#72);
#66=PERSON_AND_ORGANIZATION(#79,#73);
#67=PERSON_AND_ORGANIZATION(#79,#74);
#68=PERSON_AND_ORGANIZATION(#79,#75);
#69=PERSON_AND_ORGANIZATION(#79,#76);
#70=PERSON_AND_ORGANIZATION(#79,#77);
#71=PERSON_AND_ORGANIZATION(#79,#78);
#72=ORGANIZATION(' ',' ',' ');
#73=ORGANIZATION(' ',' ',' ');
#74=ORGANIZATION(' ',' ',' ');
#75=ORGANIZATION(' ',' ',' ');
#76=ORGANIZATION(' ',' ',' ');
#77=ORGANIZATION(' ',' ',' ');
#78=ORGANIZATION(' ',' ',' ');
#79=PERSON(' ',' ',' ',(' '),$,$);
#80=SHAPE_DEFINITION_REPRESENTATION(#81,#94);
#81=PRODUCT_DEFINITION_SHAPE('','',#82);
#82=PRODUCT_DEFINITION(' ','',#84,#83);
#83=DESIGN_CONTEXT('',#93,'design');
#84=PRODUCT_DEFINITION_FORMATION_WITH_SPECIFIED_SOURCE(' ',' ',#86,.NOT_KNOWN.);
#85=PRODUCT_RELATED_PRODUCT_CATEGORY('detail','',(#86));
#86=PRODUCT('3453_1_3D','3453_1_3D',' ',(#91));
#87=PRODUCT_CATEGORY_RELATIONSHIP(' ',' ',#89,#90);
#88=PRODUCT_CATEGORY_RELATIONSHIP('','',#90,#85);
#89=PRODUCT_CATEGORY('part',' ');
#90=PRODUCT_CATEGORY(' ','');
#91=MECHANICAL_CONTEXT(' ',#93,'mechanical');
#92=APPLICATION_PROTOCOL_DEFINITION('international standard',
'config_control_design',1994,#93);
#93=APPLICATION_CONTEXT(
'configuration controlled 3D designs of mechanical parts and assemblies');
#94=SHAPE_REPRESENTATION('3453_1_3D-None',(#382),#607);
#95=FACE_OUTER_BOUND('',#230,.T.);
#96=FACE_OUTER_BOUND('',#253,.T.);
#97=CONICAL_SURFACE('',#395,28.3883151279315,33.2938692530808);
#98=CONICAL_SURFACE('',#398,28.3883151279315,33.2938692530808);
#99=CONICAL_SURFACE('',#401,28.5252400320425,28.8056013497069);
#100=CONICAL_SURFACE('',#406,18.6462008144848,81.6246715674388);
#101=CONICAL_SURFACE('',#409,30.3758645787192,89.8753284325612);
#102=CONICAL_SURFACE('',#411,30.6072908010495,1.1943986502932);
#103=CONICAL_SURFACE('',#415,30.6638692059459,1.70613074691928);
#104=CONICAL_SURFACE('',#416,30.6638692059459,1.70613074691928);
#105=CONICAL_SURFACE('',#418,30.6638692059459,1.70613074691928);
#106=CONICAL_SURFACE('',#420,28.3883151279315,33.2938692530808);
#107=CONICAL_SURFACE('',#429,30.4915776898843,3.46643149653365);
#108=PRESENTATION_LAYER_ASSIGNMENT('1','Layer 1',(#125,#126));
#109=STYLED_ITEM('',(#111),#125);
#110=STYLED_ITEM('',(#112),#126);
#111=PRESENTATION_STYLE_ASSIGNMENT((#113));
#112=PRESENTATION_STYLE_ASSIGNMENT((#114));
#113=SURFACE_STYLE_USAGE(.BOTH.,#115);
#114=SURFACE_STYLE_USAGE(.BOTH.,#116);
#115=SURFACE_SIDE_STYLE('',(#117));
#116=SURFACE_SIDE_STYLE('',(#118));
#117=SURFACE_STYLE_FILL_AREA(#119);
#118=SURFACE_STYLE_FILL_AREA(#120);
#119=FILL_AREA_STYLE('',(#121));
#120=FILL_AREA_STYLE('',(#122));
#121=FILL_AREA_STYLE_COLOUR('',#123);
#122=FILL_AREA_STYLE_COLOUR('',#124);
#123=COLOUR_RGB('Light Gray',0.8,0.8,0.8);
#124=COLOUR_RGB('Medium Gray',0.490196078431373,0.490196078431373,0.490196078431373);
#125=MANIFOLD_SOLID_BREP('INSERT_BODY',#127);
#126=MANIFOLD_SOLID_BREP('TOOLBODY_SOLID',#128);
#127=CLOSED_SHELL('',(#139,#140,#141,#142,#143));
#128=CLOSED_SHELL('',(#144,#145,#146,#147,#148,#149,#150,#151,#152,#153,
#154,#155,#156,#157,#158,#159,#160,#161,#162,#163));
#129=TOROIDAL_SURFACE('',#392,31.1,0.4);
#130=TOROIDAL_SURFACE('',#412,29.8861583311856,0.5);
#131=TOROIDAL_SURFACE('',#413,11.6343203666806,3.);
#132=TOROIDAL_SURFACE('',#414,18.8626110140833,3.);
#133=TOROIDAL_SURFACE('',#430,29.5,2.);
#134=TOROIDAL_SURFACE('',#431,32.9915776898844,2.5);
#135=PLANE('',#387);
#136=PLANE('',#391);
#137=PLANE('',#403);
#138=PLANE('',#424);
#139=ADVANCED_FACE('',(#168,#169),#164,.T.);
#140=ADVANCED_FACE('',(#170,#171),#135,.F.);
#141=ADVANCED_FACE('',(#172,#173),#165,.F.);
#142=ADVANCED_FACE('',(#174,#175),#136,.F.);
#143=ADVANCED_FACE('',(#176,#177),#129,.T.);
#144=ADVANCED_FACE('',(#178,#179),#97,.T.);
#145=ADVANCED_FACE('',(#180,#181),#98,.T.);
#146=ADVANCED_FACE('',(#182,#183),#99,.T.);
#147=ADVANCED_FACE('SF5',(#95),#137,.F.);
#148=ADVANCED_FACE('SF3',(#184,#185),#100,.F.);
#149=ADVANCED_FACE('SF1',(#186,#187),#101,.T.);
#150=ADVANCED_FACE('S1',(#188,#189),#102,.T.);
#151=ADVANCED_FACE('',(#190,#191),#130,.T.);
#152=ADVANCED_FACE('SF4',(#192,#193),#131,.F.);
#153=ADVANCED_FACE('SF2',(#194,#195),#132,.T.);
#154=ADVANCED_FACE('S2',(#196,#197),#103,.T.);
#155=ADVANCED_FACE('S2',(#198,#199),#104,.T.);
#156=ADVANCED_FACE('S2',(#200,#201),#105,.T.);
#157=ADVANCED_FACE('',(#202,#203),#106,.T.);
#158=ADVANCED_FACE('CN_SU5',(#204,#205),#166,.T.);
#159=ADVANCED_FACE('',(#96),#138,.F.);
#160=ADVANCED_FACE('',(#206,#207),#167,.T.);
#161=ADVANCED_FACE('CN_SU3',(#208,#209),#107,.T.);
#162=ADVANCED_FACE('CN_SU2',(#210,#211),#133,.T.);
#163=ADVANCED_FACE('CN_SU4',(#212,#213),#134,.F.);
#164=CYLINDRICAL_SURFACE('',#385,31.5);
#165=CYLINDRICAL_SURFACE('',#389,17.5);
#166=CYLINDRICAL_SURFACE('',#422,30.4915776898843);
#167=CYLINDRICAL_SURFACE('',#426,31.5);
#168=FACE_BOUND('',#214,.T.);
#169=FACE_BOUND('',#215,.T.);
#170=FACE_BOUND('',#216,.T.);
#171=FACE_BOUND('',#217,.T.);
#172=FACE_BOUND('',#218,.T.);
#173=FACE_BOUND('',#219,.T.);
#174=FACE_BOUND('',#220,.T.);
#175=FACE_BOUND('',#221,.T.);
#176=FACE_BOUND('',#222,.T.);
#177=FACE_BOUND('',#223,.T.);
#178=FACE_BOUND('',#224,.T.);
#179=FACE_BOUND('',#225,.T.);
#180=FACE_BOUND('',#226,.T.);
#181=FACE_BOUND('',#227,.T.);
#182=FACE_BOUND('',#228,.T.);
#183=FACE_BOUND('',#229,.T.);
#184=FACE_BOUND('',#231,.T.);
#185=FACE_BOUND('',#232,.T.);
#186=FACE_BOUND('',#233,.T.);
#187=FACE_BOUND('',#234,.T.);
#188=FACE_BOUND('',#235,.T.);
#189=FACE_BOUND('',#236,.T.);
#190=FACE_BOUND('',#237,.T.);
#191=FACE_BOUND('',#238,.T.);
#192=FACE_BOUND('',#239,.T.);
#193=FACE_BOUND('',#240,.T.);
#194=FACE_BOUND('',#241,.T.);
#195=FACE_BOUND('',#242,.T.);
#196=FACE_BOUND('',#243,.T.);
#197=FACE_BOUND('',#244,.T.);
#198=FACE_BOUND('',#245,.T.);
#199=FACE_BOUND('',#246,.T.);
#200=FACE_BOUND('',#247,.T.);
#201=FACE_BOUND('',#248,.T.);
#202=FACE_BOUND('',#249,.T.);
#203=FACE_BOUND('',#250,.T.);
#204=FACE_BOUND('',#251,.T.);
#205=FACE_BOUND('',#252,.T.);
#206=FACE_BOUND('',#254,.T.);
#207=FACE_BOUND('',#255,.T.);
#208=FACE_BOUND('',#256,.T.);
#209=FACE_BOUND('',#257,.T.);
#210=FACE_BOUND('',#258,.T.);
#211=FACE_BOUND('',#259,.T.);
#212=FACE_BOUND('',#260,.T.);
#213=FACE_BOUND('',#261,.T.);
#214=EDGE_LOOP('',(#262));
#215=EDGE_LOOP('',(#263));
#216=EDGE_LOOP('',(#264));
#217=EDGE_LOOP('',(#265));
#218=EDGE_LOOP('',(#266));
#219=EDGE_LOOP('',(#267));
#220=EDGE_LOOP('',(#268));
#221=EDGE_LOOP('',(#269));
#222=EDGE_LOOP('',(#270));
#223=EDGE_LOOP('',(#271));
#224=EDGE_LOOP('',(#272));
#225=EDGE_LOOP('',(#273));
#226=EDGE_LOOP('',(#274));
#227=EDGE_LOOP('',(#275));
#228=EDGE_LOOP('',(#276));
#229=EDGE_LOOP('',(#277));
#230=EDGE_LOOP('',(#278));
#231=EDGE_LOOP('',(#279));
#232=EDGE_LOOP('',(#280));
#233=EDGE_LOOP('',(#281));
#234=EDGE_LOOP('',(#282));
#235=EDGE_LOOP('',(#283));
#236=EDGE_LOOP('',(#284));
#237=EDGE_LOOP('',(#285));
#238=EDGE_LOOP('',(#286));
#239=EDGE_LOOP('',(#287));
#240=EDGE_LOOP('',(#288));
#241=EDGE_LOOP('',(#289));
#242=EDGE_LOOP('',(#290));
#243=EDGE_LOOP('',(#291));
#244=EDGE_LOOP('',(#292));
#245=EDGE_LOOP('',(#293));
#246=EDGE_LOOP('',(#294));
#247=EDGE_LOOP('',(#295));
#248=EDGE_LOOP('',(#296));
#249=EDGE_LOOP('',(#297));
#250=EDGE_LOOP('',(#298));
#251=EDGE_LOOP('',(#299));
#252=EDGE_LOOP('',(#300));
#253=EDGE_LOOP('',(#301));
#254=EDGE_LOOP('',(#302));
#255=EDGE_LOOP('',(#303));
#256=EDGE_LOOP('',(#304));
#257=EDGE_LOOP('',(#305));
#258=EDGE_LOOP('',(#306));
#259=EDGE_LOOP('',(#307));
#260=EDGE_LOOP('',(#308));
#261=EDGE_LOOP('',(#309));
#262=ORIENTED_EDGE('',*,*,#334,.T.);
#263=ORIENTED_EDGE('',*,*,#335,.F.);
#264=ORIENTED_EDGE('',*,*,#336,.F.);
#265=ORIENTED_EDGE('',*,*,#335,.T.);
#266=ORIENTED_EDGE('',*,*,#337,.F.);
#267=ORIENTED_EDGE('',*,*,#336,.T.);
#268=ORIENTED_EDGE('',*,*,#338,.T.);
#269=ORIENTED_EDGE('',*,*,#337,.T.);
#270=ORIENTED_EDGE('',*,*,#338,.F.);
#271=ORIENTED_EDGE('',*,*,#334,.F.);
#272=ORIENTED_EDGE('',*,*,#339,.F.);
#273=ORIENTED_EDGE('',*,*,#340,.F.);
#274=ORIENTED_EDGE('',*,*,#341,.F.);
#275=ORIENTED_EDGE('',*,*,#342,.F.);
#276=ORIENTED_EDGE('',*,*,#343,.F.);
#277=ORIENTED_EDGE('',*,*,#344,.F.);
#278=ORIENTED_EDGE('',*,*,#345,.T.);
#279=ORIENTED_EDGE('',*,*,#346,.T.);
#280=ORIENTED_EDGE('',*,*,#347,.T.);
#281=ORIENTED_EDGE('',*,*,#348,.T.);
#282=ORIENTED_EDGE('',*,*,#349,.T.);
#283=ORIENTED_EDGE('',*,*,#350,.T.);
#284=ORIENTED_EDGE('',*,*,#343,.T.);
#285=ORIENTED_EDGE('',*,*,#350,.F.);
#286=ORIENTED_EDGE('',*,*,#349,.F.);
#287=ORIENTED_EDGE('',*,*,#346,.F.);
#288=ORIENTED_EDGE('',*,*,#345,.F.);
#289=ORIENTED_EDGE('',*,*,#348,.F.);
#290=ORIENTED_EDGE('',*,*,#347,.F.);
#291=ORIENTED_EDGE('',*,*,#341,.T.);
#292=ORIENTED_EDGE('',*,*,#344,.T.);
#293=ORIENTED_EDGE('',*,*,#339,.T.);
#294=ORIENTED_EDGE('',*,*,#342,.T.);
#295=ORIENTED_EDGE('',*,*,#351,.T.);
#296=ORIENTED_EDGE('',*,*,#340,.T.);
#297=ORIENTED_EDGE('',*,*,#352,.T.);
#298=ORIENTED_EDGE('',*,*,#351,.F.);
#299=ORIENTED_EDGE('',*,*,#353,.T.);
#300=ORIENTED_EDGE('',*,*,#352,.F.);
#301=ORIENTED_EDGE('',*,*,#354,.F.);
#302=ORIENTED_EDGE('',*,*,#355,.T.);
#303=ORIENTED_EDGE('',*,*,#354,.T.);
#304=ORIENTED_EDGE('',*,*,#356,.T.);
#305=ORIENTED_EDGE('',*,*,#357,.T.);
#306=ORIENTED_EDGE('',*,*,#355,.F.);
#307=ORIENTED_EDGE('',*,*,#357,.F.);
#308=ORIENTED_EDGE('',*,*,#356,.F.);
#309=ORIENTED_EDGE('',*,*,#353,.F.);
#310=VERTEX_POINT('',#534);
#311=VERTEX_POINT('',#536);
#312=VERTEX_POINT('',#539);
#313=VERTEX_POINT('',#542);
#314=VERTEX_POINT('',#545);
#315=VERTEX_POINT('',#549);
#316=VERTEX_POINT('',#551);
#317=VERTEX_POINT('',#554);
#318=VERTEX_POINT('',#556);
#319=VERTEX_POINT('',#559);
#320=VERTEX_POINT('',#561);
#321=VERTEX_POINT('',#564);
#322=VERTEX_POINT('',#567);
#323=VERTEX_POINT('',#569);
#324=VERTEX_POINT('',#572);
#325=VERTEX_POINT('',#574);
#326=VERTEX_POINT('',#577);
#327=VERTEX_POINT('',#585);
#328=VERTEX_POINT('',#588);
#329=VERTEX_POINT('',#591);
#330=VERTEX_POINT('',#594);
#331=VERTEX_POINT('',#597);
#332=VERTEX_POINT('',#600);
#333=VERTEX_POINT('',#602);
#334=EDGE_CURVE('',#310,#310,#358,.T.);
#335=EDGE_CURVE('',#311,#311,#359,.T.);
#336=EDGE_CURVE('',#312,#312,#360,.T.);
#337=EDGE_CURVE('',#313,#313,#361,.T.);
#338=EDGE_CURVE('',#314,#314,#362,.T.);
#339=EDGE_CURVE('',#315,#315,#363,.T.);
#340=EDGE_CURVE('',#316,#316,#364,.T.);
#341=EDGE_CURVE('',#317,#317,#365,.T.);
#342=EDGE_CURVE('',#318,#318,#366,.T.);
#343=EDGE_CURVE('',#319,#319,#367,.T.);
#344=EDGE_CURVE('',#320,#320,#368,.T.);
#345=EDGE_CURVE('',#321,#321,#369,.T.);
#346=EDGE_CURVE('',#322,#322,#370,.T.);
#347=EDGE_CURVE('',#323,#323,#371,.T.);
#348=EDGE_CURVE('',#324,#324,#372,.T.);
#349=EDGE_CURVE('',#325,#325,#373,.T.);
#350=EDGE_CURVE('',#326,#326,#374,.T.);
#351=EDGE_CURVE('',#327,#327,#375,.T.);
#352=EDGE_CURVE('',#328,#328,#376,.T.);
#353=EDGE_CURVE('',#329,#329,#377,.T.);
#354=EDGE_CURVE('',#330,#330,#378,.T.);
#355=EDGE_CURVE('',#331,#331,#379,.T.);
#356=EDGE_CURVE('',#332,#332,#380,.T.);
#357=EDGE_CURVE('',#333,#333,#381,.T.);
#358=CIRCLE('',#383,31.5);
#359=CIRCLE('',#384,31.5);
#360=CIRCLE('',#386,17.5);
#361=CIRCLE('',#388,17.5);
#362=CIRCLE('',#390,31.1);
#363=CIRCLE('',#393,30.6638692059459);
#364=CIRCLE('',#394,30.3276396852111);
#365=CIRCLE('',#396,30.6638692059459);
#366=CIRCLE('',#397,30.3276396852111);
#367=CIRCLE('',#399,30.6072908010495);
#368=CIRCLE('',#400,30.3277423840007);
#369=CIRCLE('',#402,11.6343203666806);
#370=CIRCLE('',#404,12.0712914695307);
#371=CIRCLE('',#405,18.4256399112332);
#372=CIRCLE('',#407,18.8691387969385);
#373=CIRCLE('',#408,29.8872462949948);
#374=CIRCLE('',#410,30.3860496942206);
#375=CIRCLE('',#417,30.6638692059459);
#376=CIRCLE('',#419,30.4915776898843);
#377=CIRCLE('',#421,30.4915776898843);
#378=CIRCLE('',#423,31.5);
#379=CIRCLE('',#425,31.5);
#380=CIRCLE('',#427,30.4961517041702);
#381=CIRCLE('',#428,31.4963407885713);
#382=AXIS2_PLACEMENT_3D('',#532,#432,#433);
#383=AXIS2_PLACEMENT_3D('',#533,#434,#435);
#384=AXIS2_PLACEMENT_3D('',#535,#436,#437);
#385=AXIS2_PLACEMENT_3D('',#537,#438,#439);
#386=AXIS2_PLACEMENT_3D('',#538,#440,#441);
#387=AXIS2_PLACEMENT_3D('',#540,#442,#443);
#388=AXIS2_PLACEMENT_3D('',#541,#444,#445);
#389=AXIS2_PLACEMENT_3D('',#543,#446,#447);
#390=AXIS2_PLACEMENT_3D('',#544,#448,#449);
#391=AXIS2_PLACEMENT_3D('',#546,#450,#451);
#392=AXIS2_PLACEMENT_3D('',#547,#452,#453);
#393=AXIS2_PLACEMENT_3D('',#548,#454,#455);
#394=AXIS2_PLACEMENT_3D('',#550,#456,#457);
#395=AXIS2_PLACEMENT_3D('',#552,#458,#459);
#396=AXIS2_PLACEMENT_3D('',#553,#460,#461);
#397=AXIS2_PLACEMENT_3D('',#555,#462,#463);
#398=AXIS2_PLACEMENT_3D('',#557,#464,#465);
#399=AXIS2_PLACEMENT_3D('',#558,#466,#467);
#400=AXIS2_PLACEMENT_3D('',#560,#468,#469);
#401=AXIS2_PLACEMENT_3D('',#562,#470,#471);
#402=AXIS2_PLACEMENT_3D('',#563,#472,#473);
#403=AXIS2_PLACEMENT_3D('',#565,#474,#475);
#404=AXIS2_PLACEMENT_3D('',#566,#476,#477);
#405=AXIS2_PLACEMENT_3D('',#568,#478,#479);
#406=AXIS2_PLACEMENT_3D('',#570,#480,#481);
#407=AXIS2_PLACEMENT_3D('',#571,#482,#483);
#408=AXIS2_PLACEMENT_3D('',#573,#484,#485);
#409=AXIS2_PLACEMENT_3D('',#575,#486,#487);
#410=AXIS2_PLACEMENT_3D('',#576,#488,#489);
#411=AXIS2_PLACEMENT_3D('',#578,#490,#491);
#412=AXIS2_PLACEMENT_3D('',#579,#492,#493);
#413=AXIS2_PLACEMENT_3D('',#580,#494,#495);
#414=AXIS2_PLACEMENT_3D('',#581,#496,#497);
#415=AXIS2_PLACEMENT_3D('',#582,#498,#499);
#416=AXIS2_PLACEMENT_3D('',#583,#500,#501);
#417=AXIS2_PLACEMENT_3D('',#584,#502,#503);
#418=AXIS2_PLACEMENT_3D('',#586,#504,#505);
#419=AXIS2_PLACEMENT_3D('',#587,#506,#507);
#420=AXIS2_PLACEMENT_3D('',#589,#508,#509);
#421=AXIS2_PLACEMENT_3D('',#590,#510,#511);
#422=AXIS2_PLACEMENT_3D('',#592,#512,#513);
#423=AXIS2_PLACEMENT_3D('',#593,#514,#515);
#424=AXIS2_PLACEMENT_3D('',#595,#516,#517);
#425=AXIS2_PLACEMENT_3D('',#596,#518,#519);
#426=AXIS2_PLACEMENT_3D('',#598,#520,#521);
#427=AXIS2_PLACEMENT_3D('',#599,#522,#523);
#428=AXIS2_PLACEMENT_3D('',#601,#524,#525);
#429=AXIS2_PLACEMENT_3D('',#603,#526,#527);
#430=AXIS2_PLACEMENT_3D('',#604,#528,#529);
#431=AXIS2_PLACEMENT_3D('',#605,#530,#531);
#432=DIRECTION('',(0.,0.,1.));
#433=DIRECTION('',(1.,0.,0.));
#434=DIRECTION('',(0.,0.,1.));
#435=DIRECTION('',(1.,0.,0.));
#436=DIRECTION('',(0.,0.,1.));
#437=DIRECTION('',(1.,0.,0.));
#438=DIRECTION('',(0.,0.,1.));
#439=DIRECTION('',(1.,0.,0.));
#440=DIRECTION('',(0.,0.,1.));
#441=DIRECTION('',(1.,0.,0.));
#442=DIRECTION('',(0.,0.,-1.));
#443=DIRECTION('',(-1.,0.,0.));
#444=DIRECTION('',(0.,0.,1.));
#445=DIRECTION('',(1.,0.,0.));
#446=DIRECTION('',(0.,0.,1.));
#447=DIRECTION('',(1.,0.,0.));
#448=DIRECTION('',(0.,0.,-1.));
#449=DIRECTION('',(1.,0.,0.));
#450=DIRECTION('',(0.,0.,1.));
#451=DIRECTION('',(1.,0.,0.));
#452=DIRECTION('',(0.,0.,1.));
#453=DIRECTION('',(1.,0.,0.));
#454=DIRECTION('',(0.,0.,-1.));
#455=DIRECTION('',(-0.848048096156426,-0.529919264233205,0.));
#456=DIRECTION('',(0.,0.,1.));
#457=DIRECTION('',(1.,0.,0.));
#458=DIRECTION('',(0.,0.,-1.));
#459=DIRECTION('',(-0.848048096156426,-0.529919264233205,-1.4179354798649E-016));
#460=DIRECTION('',(0.,0.,-1.));
#461=DIRECTION('',(-1.,0.,0.));
#462=DIRECTION('',(0.,0.,1.));
#463=DIRECTION('',(1.,0.,0.));
#464=DIRECTION('',(0.,0.,-1.));
#465=DIRECTION('',(-1.,0.,1.31665437416026E-016));
#466=DIRECTION('',(0.,0.,-1.));
#467=DIRECTION('',(-1.,0.,0.));
#468=DIRECTION('',(0.,0.,1.));
#469=DIRECTION('',(1.,0.,0.));
#470=DIRECTION('',(0.,0.,-1.));
#471=DIRECTION('',(-1.,0.,7.19793302539768E-017));
#472=DIRECTION('',(0.,0.,-1.));
#473=DIRECTION('',(1.,0.,0.));
#474=DIRECTION('',(0.,0.,1.));
#475=DIRECTION('',(1.,0.,0.));
#476=DIRECTION('',(0.,0.,1.));
#477=DIRECTION('',(-1.,0.,0.));
#478=DIRECTION('',(0.,0.,-1.));
#479=DIRECTION('',(1.,0.,0.));
#480=DIRECTION('',(0.,0.,-1.));
#481=DIRECTION('',(-1.,0.,-2.0375940562387E-018));
#482=DIRECTION('',(0.,0.,1.));
#483=DIRECTION('',(-1.,0.,0.));
#484=DIRECTION('',(0.,0.,-1.));
#485=DIRECTION('',(-1.,0.,0.));
#486=DIRECTION('',(0.,0.,1.));
#487=DIRECTION('',(1.,0.,1.20780549947055E-019));
#488=DIRECTION('',(0.,0.,1.));
#489=DIRECTION('',(-1.,0.,0.));
#490=DIRECTION('',(0.,0.,1.));
#491=DIRECTION('',(1.,0.,-1.07879764868754E-015));
#492=DIRECTION('',(0.,0.,1.));
#493=DIRECTION('',(1.,0.,0.));
#494=DIRECTION('',(0.,0.,1.));
#495=DIRECTION('',(1.,0.,0.));
#496=DIRECTION('',(0.,0.,1.));
#497=DIRECTION('',(1.,0.,0.));
#498=DIRECTION('',(0.,0.,1.));
#499=DIRECTION('',(1.,0.,-8.03507663357295E-016));
#500=DIRECTION('',(0.,0.,1.));
#501=DIRECTION('',(0.848048096156426,0.529919264233205,-2.29573618102084E-016));
#502=DIRECTION('',(0.,0.,-1.));
#503=DIRECTION('',(-0.438371146789078,-0.898794046299167,0.));
#504=DIRECTION('',(0.,0.,1.));
#505=DIRECTION('',(0.438371146789078,0.898794046299167,2.29573618102084E-016));
#506=DIRECTION('',(0.,0.,-1.));
#507=DIRECTION('',(-1.,0.,0.));
#508=DIRECTION('',(0.,0.,-1.));
#509=DIRECTION('',(-0.438371146789078,-0.898794046299167,-9.62170504194037E-017));
#510=DIRECTION('',(0.,0.,-1.));
#511=DIRECTION('',(-1.,0.,0.));
#512=DIRECTION('',(0.,0.,-1.));
#513=DIRECTION('',(-1.,0.,0.));
#514=DIRECTION('',(0.,0.,-1.));
#515=DIRECTION('',(-1.,0.,0.));
#516=DIRECTION('',(0.,0.,-1.));
#517=DIRECTION('',(-1.,0.,0.));
#518=DIRECTION('',(0.,0.,1.));
#519=DIRECTION('',(1.,0.,0.));
#520=DIRECTION('',(0.,0.,-1.));
#521=DIRECTION('',(-1.,0.,0.));
#522=DIRECTION('',(0.,0.,1.));
#523=DIRECTION('',(1.,0.,0.));
#524=DIRECTION('',(0.,0.,-1.));
#525=DIRECTION('',(-1.,0.,0.));
#526=DIRECTION('',(0.,0.,1.));
#527=DIRECTION('',(1.,0.,2.66686685100084E-016));
#528=DIRECTION('',(0.,0.,1.));
#529=DIRECTION('',(1.,0.,0.));
#530=DIRECTION('',(0.,0.,-1.));
#531=DIRECTION('',(-1.,0.,0.));
#532=CARTESIAN_POINT('',(0.,0.,0.));
#533=CARTESIAN_POINT('',(0.,0.,-79.6));
#534=CARTESIAN_POINT('',(31.5,0.,-79.6));
#535=CARTESIAN_POINT('',(0.,0.,-31.));
#536=CARTESIAN_POINT('',(31.5,0.,-31.));
#537=CARTESIAN_POINT('',(0.,0.,35.7057520950812));
#538=CARTESIAN_POINT('',(0.,0.,-31.));
#539=CARTESIAN_POINT('',(17.5,0.,-31.));
#540=CARTESIAN_POINT('',(-31.5,0.,-31.));
#541=CARTESIAN_POINT('',(0.,0.,-80.));
#542=CARTESIAN_POINT('',(17.5,0.,-80.));
#543=CARTESIAN_POINT('',(0.,0.,35.7057520950812));
#544=CARTESIAN_POINT('',(0.,0.,-80.));
#545=CARTESIAN_POINT('',(31.1,0.,-80.));
#546=CARTESIAN_POINT('',(-17.5,0.,-80.));
#547=CARTESIAN_POINT('',(0.,0.,-79.6));
#548=CARTESIAN_POINT('',(-6.67050050766906E-017,1.06750322884087E-016,-43.7870994324759));
#549=CARTESIAN_POINT('',(-26.0044359008921,-16.2493750081581,-43.7870994324759));
#550=CARTESIAN_POINT('',(-6.67050050766906E-017,1.06750322884087E-016,-43.2751195303609));
#551=CARTESIAN_POINT('',(30.3276396852111,1.06750322884087E-016,-43.2751195303609));
#552=CARTESIAN_POINT('',(-6.67050050766906E-017,1.06750322884087E-016,-40.3220915070172));
#553=CARTESIAN_POINT('',(0.,0.,-55.5870994324759));
#554=CARTESIAN_POINT('',(-30.6638692059459,0.,-55.5870994324759));
#555=CARTESIAN_POINT('',(0.,0.,-55.0751195303609));
#556=CARTESIAN_POINT('',(30.3276396852111,0.,-55.0751195303609));
#557=CARTESIAN_POINT('',(0.,0.,-52.1220915070172));
#558=CARTESIAN_POINT('',(0.,0.,-67.3800506386092));
#559=CARTESIAN_POINT('',(-30.6072908010495,0.,-67.3800506386092));
#560=CARTESIAN_POINT('',(0.,0.,-66.8716716891404));
#561=CARTESIAN_POINT('',(30.3277423840007,0.,-66.8716716891404));
#562=CARTESIAN_POINT('',(0.,0.,-63.5936912169992));
#563=CARTESIAN_POINT('',(0.,0.,-77.5055735983695));
#564=CARTESIAN_POINT('',(11.6343203666806,0.,-77.5055735983695));
#565=CARTESIAN_POINT('',(-11.8539772224063,0.,-77.5055735983695));
#566=CARTESIAN_POINT('',(0.,0.,-77.5375681645345));
#567=CARTESIAN_POINT('',(-12.0712914695307,0.,-77.5375681645345));
#568=CARTESIAN_POINT('',(0.,0.,-78.4731010361428));
#569=CARTESIAN_POINT('',(18.4256399112332,0.,-78.4731010361428));
#570=CARTESIAN_POINT('',(0.,0.,-78.5055735983695));
#571=CARTESIAN_POINT('',(0.,0.,-78.5050885003079));
#572=CARTESIAN_POINT('',(-18.8691387969385,0.,-78.5050885003079));
#573=CARTESIAN_POINT('',(0.,0.,-78.4811138391446));
#574=CARTESIAN_POINT('',(-29.8872462949948,0.,-78.4811138391446));
#575=CARTESIAN_POINT('',(0.,0.,-78.4800506386092));
#576=CARTESIAN_POINT('',(0.,0.,-77.9915373624258));
#577=CARTESIAN_POINT('',(-30.3860496942206,0.,-77.9915373624258));
#578=CARTESIAN_POINT('',(0.,0.,-67.3800506386092));
#579=CARTESIAN_POINT('',(0.,0.,-77.9811150228112));
#580=CARTESIAN_POINT('',(0.,0.,-80.5055735983695));
#581=CARTESIAN_POINT('',(0.,0.,-75.5050956023078));
#582=CARTESIAN_POINT('',(0.,0.,-55.5870994324759));
#583=CARTESIAN_POINT('',(-6.67050050766906E-017,1.06750322884087E-016,-43.7870994324759));
#584=CARTESIAN_POINT('',(-1.13138105118785E-016,5.51811408750213E-017,-31.9870994324759));
#585=CARTESIAN_POINT('',(-13.4421555088008,-27.5605030788005,-31.9870994324759));
#586=CARTESIAN_POINT('',(-1.13138105118785E-016,5.51811408750213E-017,-31.9870994324759));
#587=CARTESIAN_POINT('',(-1.13138105118785E-016,5.51811408750213E-017,-31.7247494956362));
#588=CARTESIAN_POINT('',(-30.4915776898843,5.51811408750213E-017,-31.7247494956362));
#589=CARTESIAN_POINT('',(-1.13138105118785E-016,5.51811408750213E-017,-28.5220915070172));
#590=CARTESIAN_POINT('',(0.,0.,-29.0627483124952));
#591=CARTESIAN_POINT('',(-30.4915776898843,0.,-29.0627483124952));
#592=CARTESIAN_POINT('',(0.,0.,21.1348153402073));
#593=CARTESIAN_POINT('',(0.,0.,0.));
#594=CARTESIAN_POINT('',(-31.5,0.,0.));
#595=CARTESIAN_POINT('',(0.,0.,0.));
#596=CARTESIAN_POINT('',(0.,0.,-12.2789617919692));
#597=CARTESIAN_POINT('',(31.5,0.,-12.2789617919692));
#598=CARTESIAN_POINT('',(0.,0.,21.1348153402073));
#599=CARTESIAN_POINT('',(0.,0.,-28.9115889600797));
#600=CARTESIAN_POINT('',(30.4961517041702,0.,-28.9115889600797));
#601=CARTESIAN_POINT('',(0.,0.,-12.3998892739016));
#602=CARTESIAN_POINT('',(-31.4963407885713,0.,-12.3998892739016));
#603=CARTESIAN_POINT('',(0.,0.,-28.9870994324759));
#604=CARTESIAN_POINT('',(0.,0.,-12.2789617919692));
#605=CARTESIAN_POINT('',(0.,0.,-29.0627483124952));
#606=MECHANICAL_DESIGN_GEOMETRIC_PRESENTATION_REPRESENTATION('',(#109,#110),
#607);
#607=(
GEOMETRIC_REPRESENTATION_CONTEXT(3)
GLOBAL_UNCERTAINTY_ASSIGNED_CONTEXT((#608))
GLOBAL_UNIT_ASSIGNED_CONTEXT((#614,#610,#609))
REPRESENTATION_CONTEXT('3453_1_3D','TOP_LEVEL_ASSEMBLY_PART')
);
#608=UNCERTAINTY_MEASURE_WITH_UNIT(LENGTH_MEASURE(2.E-005),#614,
'DISTANCE_ACCURACY_VALUE','Maximum Tolerance applied to model');
#609=(
NAMED_UNIT(*)
SI_UNIT($,.STERADIAN.)
SOLID_ANGLE_UNIT()
);
#610=(
CONVERSION_BASED_UNIT('DEGREE',#612)
NAMED_UNIT(#611)
PLANE_ANGLE_UNIT()
);
#611=DIMENSIONAL_EXPONENTS(0.,0.,0.,0.,0.,0.,0.);
#612=PLANE_ANGLE_MEASURE_WITH_UNIT(PLANE_ANGLE_MEASURE(0.0174532925),#613);
#613=(
NAMED_UNIT(*)
PLANE_ANGLE_UNIT()
SI_UNIT($,.RADIAN.)
);
#614=(
LENGTH_UNIT()
NAMED_UNIT(*)
SI_UNIT(.MILLI.,.METRE.)
);
ENDSEC;
END-ISO-10303-21;
