ISO-10303-21;
HEADER;
/* Generated by software containing ST-Developer
 * from STEP Tools, Inc. (www.steptools.com) 
 */
/* OPTION: using custom schema-name function */

FILE_DESCRIPTION(
/* description */ ('3-D model version:1'),
/* implementation_level */ '2;1');

FILE_NAME(
/* name */ '690-063Q27-1046M',
/* time_stamp */ '2014-06-17T15:59:02+02:00',
/* author */ ('CappDp'),
/* organization */ ('AB Sandvik Coromant'),
/* preprocessor_version */ 'ST-DEVELOPER v11',
/* originating_system */ 'SIEMENS UGS NX 6.0',
/* authorisation */ '');

FILE_SCHEMA (('AP203_CONFIGURATION_CONTROLLED_3D_DESIGN_OF_MECHANICAL_PARTS_AND_ASSEMBLIES_MIM_LF'));
ENDSEC;

DATA;
#10=SHAPE_REPRESENTATION_RELATIONSHIP('None',
'relationship between 3448_1_3D-None and 3448_1_3D-None',#94,#11);
#11=ADVANCED_BREP_SHAPE_REPRESENTATION('3448_1_3D-None',(#127,#128),#707);
#12=CC_DESIGN_APPROVAL(#24,(#82));
#13=CC_DESIGN_APPROVAL(#25,(#84));
#14=CC_DESIGN_APPROVAL(#26,(#31));
#15=APPROVAL_PERSON_ORGANIZATION(#69,#24,#18);
#16=APPROVAL_PERSON_ORGANIZATION(#70,#25,#19);
#17=APPROVAL_PERSON_ORGANIZATION(#71,#26,#20);
#18=APPROVAL_ROLE('approver');
#19=APPROVAL_ROLE('approver');
#20=APPROVAL_ROLE('approver');
#21=APPROVAL_DATE_TIME(#39,#24);
#22=APPROVAL_DATE_TIME(#40,#25);
#23=APPROVAL_DATE_TIME(#41,#26);
#24=APPROVAL(#27,' ');
#25=APPROVAL(#28,' ');
#26=APPROVAL(#29,' ');
#27=APPROVAL_STATUS('not_yet_approved');
#28=APPROVAL_STATUS('not_yet_approved');
#29=APPROVAL_STATUS('not_yet_approved');
#30=CC_DESIGN_SECURITY_CLASSIFICATION(#31,(#84));
#31=SECURITY_CLASSIFICATION(' ',' ',#32);
#32=SECURITY_CLASSIFICATION_LEVEL('confidential');
#33=CC_DESIGN_DATE_AND_TIME_ASSIGNMENT(#37,#35,(#82));
#34=CC_DESIGN_DATE_AND_TIME_ASSIGNMENT(#38,#36,(#31));
#35=DATE_TIME_ROLE('creation_date');
#36=DATE_TIME_ROLE('classification_date');
#37=DATE_AND_TIME(#52,#42);
#38=DATE_AND_TIME(#53,#43);
#39=DATE_AND_TIME(#54,#44);
#40=DATE_AND_TIME(#55,#45);
#41=DATE_AND_TIME(#56,#46);
#42=LOCAL_TIME(0,0,0.,#47);
#43=LOCAL_TIME(0,0,0.,#48);
#44=LOCAL_TIME(0,0,0.,#49);
#45=LOCAL_TIME(0,0,0.,#50);
#46=LOCAL_TIME(0,0,0.,#51);
#47=COORDINATED_UNIVERSAL_TIME_OFFSET(0,0,.BEHIND.);
#48=COORDINATED_UNIVERSAL_TIME_OFFSET(0,0,.BEHIND.);
#49=COORDINATED_UNIVERSAL_TIME_OFFSET(0,0,.BEHIND.);
#50=COORDINATED_UNIVERSAL_TIME_OFFSET(0,0,.BEHIND.);
#51=COORDINATED_UNIVERSAL_TIME_OFFSET(0,0,.BEHIND.);
#52=CALENDAR_DATE(0,1,1);
#53=CALENDAR_DATE(0,1,1);
#54=CALENDAR_DATE(0,1,1);
#55=CALENDAR_DATE(0,1,1);
#56=CALENDAR_DATE(0,1,1);
#57=CC_DESIGN_PERSON_AND_ORGANIZATION_ASSIGNMENT(#65,#61,(#82,#84));
#58=CC_DESIGN_PERSON_AND_ORGANIZATION_ASSIGNMENT(#66,#62,(#86));
#59=CC_DESIGN_PERSON_AND_ORGANIZATION_ASSIGNMENT(#67,#63,(#84));
#60=CC_DESIGN_PERSON_AND_ORGANIZATION_ASSIGNMENT(#68,#64,(#31));
#61=PERSON_AND_ORGANIZATION_ROLE('creator');
#62=PERSON_AND_ORGANIZATION_ROLE('design_owner');
#63=PERSON_AND_ORGANIZATION_ROLE('design_supplier');
#64=PERSON_AND_ORGANIZATION_ROLE('classification_officer');
#65=PERSON_AND_ORGANIZATION(#79,#72);
#66=PERSON_AND_ORGANIZATION(#79,#73);
#67=PERSON_AND_ORGANIZATION(#79,#74);
#68=PERSON_AND_ORGANIZATION(#79,#75);
#69=PERSON_AND_ORGANIZATION(#79,#76);
#70=PERSON_AND_ORGANIZATION(#79,#77);
#71=PERSON_AND_ORGANIZATION(#79,#78);
#72=ORGANIZATION(' ',' ',' ');
#73=ORGANIZATION(' ',' ',' ');
#74=ORGANIZATION(' ',' ',' ');
#75=ORGANIZATION(' ',' ',' ');
#76=ORGANIZATION(' ',' ',' ');
#77=ORGANIZATION(' ',' ',' ');
#78=ORGANIZATION(' ',' ',' ');
#79=PERSON(' ',' ',' ',(' '),$,$);
#80=SHAPE_DEFINITION_REPRESENTATION(#81,#94);
#81=PRODUCT_DEFINITION_SHAPE('','',#82);
#82=PRODUCT_DEFINITION(' ','',#84,#83);
#83=DESIGN_CONTEXT('',#93,'design');
#84=PRODUCT_DEFINITION_FORMATION_WITH_SPECIFIED_SOURCE(' ',' ',#86,.NOT_KNOWN.);
#85=PRODUCT_RELATED_PRODUCT_CATEGORY('detail','',(#86));
#86=PRODUCT('3448_1_3D','3448_1_3D',' ',(#91));
#87=PRODUCT_CATEGORY_RELATIONSHIP(' ',' ',#89,#90);
#88=PRODUCT_CATEGORY_RELATIONSHIP('','',#90,#85);
#89=PRODUCT_CATEGORY('part',' ');
#90=PRODUCT_CATEGORY(' ','');
#91=MECHANICAL_CONTEXT(' ',#93,'mechanical');
#92=APPLICATION_PROTOCOL_DEFINITION('international standard',
'config_control_design',1994,#93);
#93=APPLICATION_CONTEXT(
'configuration controlled 3D designs of mechanical parts and assemblies');
#94=SHAPE_REPRESENTATION('3448_1_3D-None',(#437),#707);
#95=FACE_OUTER_BOUND('',#254,.T.);
#96=FACE_OUTER_BOUND('',#281,.T.);
#97=CONICAL_SURFACE('',#450,30.065521016864,21.3414321630581);
#98=CONICAL_SURFACE('',#453,30.065521016864,21.3414321630581);
#99=CONICAL_SURFACE('',#456,30.065521016864,21.3414321630581);
#100=CONICAL_SURFACE('',#459,30.065521016864,21.3414321630581);
#101=CONICAL_SURFACE('',#467,22.7782833209303,77.);
#102=CONICAL_SURFACE('',#473,30.7897208686267,1.1577341023268);
#103=CONICAL_SURFACE('',#474,30.3766809888082,18.8422658976732);
#104=CONICAL_SURFACE('',#478,30.4673586061506,1.65856783694179);
#105=CONICAL_SURFACE('',#479,30.4673586061506,1.65856783694179);
#106=CONICAL_SURFACE('',#480,30.4673586061506,1.65856783694179);
#107=CONICAL_SURFACE('',#481,30.4673586061506,1.65856783694179);
#108=CONICAL_SURFACE('',#483,30.4673586061506,1.65856783694179);
#109=CONICAL_SURFACE('',#492,30.7217175081606,2.16921759493913);
#110=PRESENTATION_LAYER_ASSIGNMENT('1','Layer 1',(#127,#128));
#111=STYLED_ITEM('',(#113),#127);
#112=STYLED_ITEM('',(#114),#128);
#113=PRESENTATION_STYLE_ASSIGNMENT((#115));
#114=PRESENTATION_STYLE_ASSIGNMENT((#116));
#115=SURFACE_STYLE_USAGE(.BOTH.,#117);
#116=SURFACE_STYLE_USAGE(.BOTH.,#118);
#117=SURFACE_SIDE_STYLE('',(#119));
#118=SURFACE_SIDE_STYLE('',(#120));
#119=SURFACE_STYLE_FILL_AREA(#121);
#120=SURFACE_STYLE_FILL_AREA(#122);
#121=FILL_AREA_STYLE('',(#123));
#122=FILL_AREA_STYLE('',(#124));
#123=FILL_AREA_STYLE_COLOUR('',#125);
#124=FILL_AREA_STYLE_COLOUR('',#126);
#125=COLOUR_RGB('Light Gray',0.8,0.8,0.8);
#126=COLOUR_RGB('Medium Gray',0.490196078431373,0.490196078431373,0.490196078431373);
#127=MANIFOLD_SOLID_BREP('INSERT_BODY',#129);
#128=MANIFOLD_SOLID_BREP('TOOLBODY_SOLID',#130);
#129=CLOSED_SHELL('',(#144,#145,#146,#147,#148));
#130=CLOSED_SHELL('',(#149,#150,#151,#152,#153,#154,#155,#156,#157,#158,
#159,#160,#161,#162,#163,#164,#165,#166,#167,#168,#169,#170,#171,#172,#173));
#131=TOROIDAL_SURFACE('',#447,31.1,0.4);
#132=TOROIDAL_SURFACE('',#475,30.1637165681836,0.5);
#133=TOROIDAL_SURFACE('',#476,18.1050006217412,3.);
#134=TOROIDAL_SURFACE('',#477,23.1200901458352,3.);
#135=TOROIDAL_SURFACE('',#495,29.5,2.);
#136=TOROIDAL_SURFACE('',#496,33.2217175081606,2.5);
#137=PLANE('',#442);
#138=PLANE('',#446);
#139=PLANE('',#462);
#140=PLANE('',#464);
#141=PLANE('',#470);
#142=PLANE('',#485);
#143=PLANE('',#487);
#144=ADVANCED_FACE('',(#178,#179),#174,.T.);
#145=ADVANCED_FACE('',(#180,#181),#137,.F.);
#146=ADVANCED_FACE('',(#182,#183),#175,.F.);
#147=ADVANCED_FACE('',(#184,#185),#138,.F.);
#148=ADVANCED_FACE('',(#186,#187),#131,.T.);
#149=ADVANCED_FACE('',(#188,#189),#97,.T.);
#150=ADVANCED_FACE('',(#190,#191),#98,.T.);
#151=ADVANCED_FACE('',(#192,#193),#99,.T.);
#152=ADVANCED_FACE('',(#194,#195),#100,.T.);
#153=ADVANCED_FACE('',(#196,#197),#139,.F.);
#154=ADVANCED_FACE('SF5',(#95),#140,.F.);
#155=ADVANCED_FACE('SF3',(#198,#199),#101,.F.);
#156=ADVANCED_FACE('SF1',(#200,#201),#141,.F.);
#157=ADVANCED_FACE('S1',(#202,#203),#102,.T.);
#158=ADVANCED_FACE('',(#204,#205),#103,.T.);
#159=ADVANCED_FACE('',(#206,#207),#132,.T.);
#160=ADVANCED_FACE('SF4',(#208,#209),#133,.F.);
#161=ADVANCED_FACE('SF2',(#210,#211),#134,.T.);
#162=ADVANCED_FACE('S2',(#212,#213),#104,.T.);
#163=ADVANCED_FACE('S2',(#214,#215),#105,.T.);
#164=ADVANCED_FACE('S2',(#216,#217),#106,.T.);
#165=ADVANCED_FACE('S2',(#218,#219),#107,.T.);
#166=ADVANCED_FACE('S2',(#220,#221),#108,.T.);
#167=ADVANCED_FACE('',(#222,#223),#142,.T.);
#168=ADVANCED_FACE('',(#96),#143,.F.);
#169=ADVANCED_FACE('',(#224,#225),#176,.T.);
#170=ADVANCED_FACE('CN_SU3',(#226,#227),#109,.T.);
#171=ADVANCED_FACE('CN_SU5',(#228,#229),#177,.T.);
#172=ADVANCED_FACE('CN_SU2',(#230,#231),#135,.T.);
#173=ADVANCED_FACE('CN_SU4',(#232,#233),#136,.F.);
#174=CYLINDRICAL_SURFACE('',#440,31.5);
#175=CYLINDRICAL_SURFACE('',#444,21.5);
#176=CYLINDRICAL_SURFACE('',#489,31.5);
#177=CYLINDRICAL_SURFACE('',#494,30.7217175081606);
#178=FACE_BOUND('',#234,.T.);
#179=FACE_BOUND('',#235,.T.);
#180=FACE_BOUND('',#236,.T.);
#181=FACE_BOUND('',#237,.T.);
#182=FACE_BOUND('',#238,.T.);
#183=FACE_BOUND('',#239,.T.);
#184=FACE_BOUND('',#240,.T.);
#185=FACE_BOUND('',#241,.T.);
#186=FACE_BOUND('',#242,.T.);
#187=FACE_BOUND('',#243,.T.);
#188=FACE_BOUND('',#244,.T.);
#189=FACE_BOUND('',#245,.T.);
#190=FACE_BOUND('',#246,.T.);
#191=FACE_BOUND('',#247,.T.);
#192=FACE_BOUND('',#248,.T.);
#193=FACE_BOUND('',#249,.T.);
#194=FACE_BOUND('',#250,.T.);
#195=FACE_BOUND('',#251,.T.);
#196=FACE_BOUND('',#252,.T.);
#197=FACE_BOUND('',#253,.T.);
#198=FACE_BOUND('',#255,.T.);
#199=FACE_BOUND('',#256,.T.);
#200=FACE_BOUND('',#257,.T.);
#201=FACE_BOUND('',#258,.T.);
#202=FACE_BOUND('',#259,.T.);
#203=FACE_BOUND('',#260,.T.);
#204=FACE_BOUND('',#261,.T.);
#205=FACE_BOUND('',#262,.T.);
#206=FACE_BOUND('',#263,.T.);
#207=FACE_BOUND('',#264,.T.);
#208=FACE_BOUND('',#265,.T.);
#209=FACE_BOUND('',#266,.T.);
#210=FACE_BOUND('',#267,.T.);
#211=FACE_BOUND('',#268,.T.);
#212=FACE_BOUND('',#269,.T.);
#213=FACE_BOUND('',#270,.T.);
#214=FACE_BOUND('',#271,.T.);
#215=FACE_BOUND('',#272,.T.);
#216=FACE_BOUND('',#273,.T.);
#217=FACE_BOUND('',#274,.T.);
#218=FACE_BOUND('',#275,.T.);
#219=FACE_BOUND('',#276,.T.);
#220=FACE_BOUND('',#277,.T.);
#221=FACE_BOUND('',#278,.T.);
#222=FACE_BOUND('',#279,.T.);
#223=FACE_BOUND('',#280,.T.);
#224=FACE_BOUND('',#282,.T.);
#225=FACE_BOUND('',#283,.T.);
#226=FACE_BOUND('',#284,.T.);
#227=FACE_BOUND('',#285,.T.);
#228=FACE_BOUND('',#286,.T.);
#229=FACE_BOUND('',#287,.T.);
#230=FACE_BOUND('',#288,.T.);
#231=FACE_BOUND('',#289,.T.);
#232=FACE_BOUND('',#290,.T.);
#233=FACE_BOUND('',#291,.T.);
#234=EDGE_LOOP('',(#292));
#235=EDGE_LOOP('',(#293));
#236=EDGE_LOOP('',(#294));
#237=EDGE_LOOP('',(#295));
#238=EDGE_LOOP('',(#296));
#239=EDGE_LOOP('',(#297));
#240=EDGE_LOOP('',(#298));
#241=EDGE_LOOP('',(#299));
#242=EDGE_LOOP('',(#300));
#243=EDGE_LOOP('',(#301));
#244=EDGE_LOOP('',(#302));
#245=EDGE_LOOP('',(#303));
#246=EDGE_LOOP('',(#304));
#247=EDGE_LOOP('',(#305));
#248=EDGE_LOOP('',(#306));
#249=EDGE_LOOP('',(#307));
#250=EDGE_LOOP('',(#308));
#251=EDGE_LOOP('',(#309));
#252=EDGE_LOOP('',(#310));
#253=EDGE_LOOP('',(#311));
#254=EDGE_LOOP('',(#312));
#255=EDGE_LOOP('',(#313));
#256=EDGE_LOOP('',(#314));
#257=EDGE_LOOP('',(#315));
#258=EDGE_LOOP('',(#316));
#259=EDGE_LOOP('',(#317));
#260=EDGE_LOOP('',(#318));
#261=EDGE_LOOP('',(#319));
#262=EDGE_LOOP('',(#320));
#263=EDGE_LOOP('',(#321));
#264=EDGE_LOOP('',(#322));
#265=EDGE_LOOP('',(#323));
#266=EDGE_LOOP('',(#324));
#267=EDGE_LOOP('',(#325));
#268=EDGE_LOOP('',(#326));
#269=EDGE_LOOP('',(#327));
#270=EDGE_LOOP('',(#328));
#271=EDGE_LOOP('',(#329));
#272=EDGE_LOOP('',(#330));
#273=EDGE_LOOP('',(#331));
#274=EDGE_LOOP('',(#332));
#275=EDGE_LOOP('',(#333));
#276=EDGE_LOOP('',(#334));
#277=EDGE_LOOP('',(#335));
#278=EDGE_LOOP('',(#336));
#279=EDGE_LOOP('',(#337));
#280=EDGE_LOOP('',(#338));
#281=EDGE_LOOP('',(#339));
#282=EDGE_LOOP('',(#340));
#283=EDGE_LOOP('',(#341));
#284=EDGE_LOOP('',(#342));
#285=EDGE_LOOP('',(#343));
#286=EDGE_LOOP('',(#344));
#287=EDGE_LOOP('',(#345));
#288=EDGE_LOOP('',(#346));
#289=EDGE_LOOP('',(#347));
#290=EDGE_LOOP('',(#348));
#291=EDGE_LOOP('',(#349));
#292=ORIENTED_EDGE('',*,*,#379,.T.);
#293=ORIENTED_EDGE('',*,*,#380,.F.);
#294=ORIENTED_EDGE('',*,*,#381,.F.);
#295=ORIENTED_EDGE('',*,*,#380,.T.);
#296=ORIENTED_EDGE('',*,*,#382,.F.);
#297=ORIENTED_EDGE('',*,*,#381,.T.);
#298=ORIENTED_EDGE('',*,*,#383,.T.);
#299=ORIENTED_EDGE('',*,*,#382,.T.);
#300=ORIENTED_EDGE('',*,*,#383,.F.);
#301=ORIENTED_EDGE('',*,*,#379,.F.);
#302=ORIENTED_EDGE('',*,*,#384,.F.);
#303=ORIENTED_EDGE('',*,*,#385,.F.);
#304=ORIENTED_EDGE('',*,*,#386,.F.);
#305=ORIENTED_EDGE('',*,*,#387,.F.);
#306=ORIENTED_EDGE('',*,*,#388,.F.);
#307=ORIENTED_EDGE('',*,*,#389,.F.);
#308=ORIENTED_EDGE('',*,*,#390,.F.);
#309=ORIENTED_EDGE('',*,*,#391,.F.);
#310=ORIENTED_EDGE('',*,*,#392,.F.);
#311=ORIENTED_EDGE('',*,*,#393,.F.);
#312=ORIENTED_EDGE('',*,*,#394,.T.);
#313=ORIENTED_EDGE('',*,*,#395,.T.);
#314=ORIENTED_EDGE('',*,*,#396,.T.);
#315=ORIENTED_EDGE('',*,*,#397,.T.);
#316=ORIENTED_EDGE('',*,*,#398,.T.);
#317=ORIENTED_EDGE('',*,*,#399,.T.);
#318=ORIENTED_EDGE('',*,*,#400,.T.);
#319=ORIENTED_EDGE('',*,*,#400,.F.);
#320=ORIENTED_EDGE('',*,*,#392,.T.);
#321=ORIENTED_EDGE('',*,*,#399,.F.);
#322=ORIENTED_EDGE('',*,*,#398,.F.);
#323=ORIENTED_EDGE('',*,*,#395,.F.);
#324=ORIENTED_EDGE('',*,*,#394,.F.);
#325=ORIENTED_EDGE('',*,*,#397,.F.);
#326=ORIENTED_EDGE('',*,*,#396,.F.);
#327=ORIENTED_EDGE('',*,*,#390,.T.);
#328=ORIENTED_EDGE('',*,*,#393,.T.);
#329=ORIENTED_EDGE('',*,*,#388,.T.);
#330=ORIENTED_EDGE('',*,*,#391,.T.);
#331=ORIENTED_EDGE('',*,*,#386,.T.);
#332=ORIENTED_EDGE('',*,*,#389,.T.);
#333=ORIENTED_EDGE('',*,*,#384,.T.);
#334=ORIENTED_EDGE('',*,*,#387,.T.);
#335=ORIENTED_EDGE('',*,*,#401,.T.);
#336=ORIENTED_EDGE('',*,*,#385,.T.);
#337=ORIENTED_EDGE('',*,*,#402,.T.);
#338=ORIENTED_EDGE('',*,*,#401,.F.);
#339=ORIENTED_EDGE('',*,*,#403,.F.);
#340=ORIENTED_EDGE('',*,*,#404,.T.);
#341=ORIENTED_EDGE('',*,*,#403,.T.);
#342=ORIENTED_EDGE('',*,*,#405,.T.);
#343=ORIENTED_EDGE('',*,*,#406,.T.);
#344=ORIENTED_EDGE('',*,*,#407,.T.);
#345=ORIENTED_EDGE('',*,*,#402,.F.);
#346=ORIENTED_EDGE('',*,*,#404,.F.);
#347=ORIENTED_EDGE('',*,*,#406,.F.);
#348=ORIENTED_EDGE('',*,*,#405,.F.);
#349=ORIENTED_EDGE('',*,*,#407,.F.);
#350=VERTEX_POINT('',#619);
#351=VERTEX_POINT('',#621);
#352=VERTEX_POINT('',#624);
#353=VERTEX_POINT('',#627);
#354=VERTEX_POINT('',#630);
#355=VERTEX_POINT('',#634);
#356=VERTEX_POINT('',#636);
#357=VERTEX_POINT('',#639);
#358=VERTEX_POINT('',#641);
#359=VERTEX_POINT('',#644);
#360=VERTEX_POINT('',#646);
#361=VERTEX_POINT('',#649);
#362=VERTEX_POINT('',#651);
#363=VERTEX_POINT('',#654);
#364=VERTEX_POINT('',#656);
#365=VERTEX_POINT('',#659);
#366=VERTEX_POINT('',#662);
#367=VERTEX_POINT('',#664);
#368=VERTEX_POINT('',#667);
#369=VERTEX_POINT('',#669);
#370=VERTEX_POINT('',#672);
#371=VERTEX_POINT('',#674);
#372=VERTEX_POINT('',#685);
#373=VERTEX_POINT('',#688);
#374=VERTEX_POINT('',#691);
#375=VERTEX_POINT('',#694);
#376=VERTEX_POINT('',#697);
#377=VERTEX_POINT('',#699);
#378=VERTEX_POINT('',#702);
#379=EDGE_CURVE('',#350,#350,#408,.T.);
#380=EDGE_CURVE('',#351,#351,#409,.T.);
#381=EDGE_CURVE('',#352,#352,#410,.T.);
#382=EDGE_CURVE('',#353,#353,#411,.T.);
#383=EDGE_CURVE('',#354,#354,#412,.T.);
#384=EDGE_CURVE('',#355,#355,#413,.T.);
#385=EDGE_CURVE('',#356,#356,#414,.T.);
#386=EDGE_CURVE('',#357,#357,#415,.T.);
#387=EDGE_CURVE('',#358,#358,#416,.T.);
#388=EDGE_CURVE('',#359,#359,#417,.T.);
#389=EDGE_CURVE('',#360,#360,#418,.T.);
#390=EDGE_CURVE('',#361,#361,#419,.T.);
#391=EDGE_CURVE('',#362,#362,#420,.T.);
#392=EDGE_CURVE('',#363,#363,#421,.T.);
#393=EDGE_CURVE('',#364,#364,#422,.T.);
#394=EDGE_CURVE('',#365,#365,#423,.T.);
#395=EDGE_CURVE('',#366,#366,#424,.T.);
#396=EDGE_CURVE('',#367,#367,#425,.T.);
#397=EDGE_CURVE('',#368,#368,#426,.T.);
#398=EDGE_CURVE('',#369,#369,#427,.T.);
#399=EDGE_CURVE('',#370,#370,#428,.T.);
#400=EDGE_CURVE('',#371,#371,#429,.T.);
#401=EDGE_CURVE('',#372,#372,#430,.T.);
#402=EDGE_CURVE('',#373,#373,#431,.T.);
#403=EDGE_CURVE('',#374,#374,#432,.T.);
#404=EDGE_CURVE('',#375,#375,#433,.T.);
#405=EDGE_CURVE('',#376,#376,#434,.T.);
#406=EDGE_CURVE('',#377,#377,#435,.T.);
#407=EDGE_CURVE('',#378,#378,#436,.T.);
#408=CIRCLE('',#438,31.5);
#409=CIRCLE('',#439,31.5);
#410=CIRCLE('',#441,21.5);
#411=CIRCLE('',#443,21.5);
#412=CIRCLE('',#445,31.1);
#413=CIRCLE('',#448,30.4673586061506);
#414=CIRCLE('',#449,30.2692191295581);
#415=CIRCLE('',#451,30.4673586061506);
#416=CIRCLE('',#452,30.2692191295581);
#417=CIRCLE('',#454,30.4673586061506);
#418=CIRCLE('',#455,30.2692191295581);
#419=CIRCLE('',#457,30.4673586061506);
#420=CIRCLE('',#458,30.2692191295581);
#421=CIRCLE('',#460,30.3766809888082);
#422=CIRCLE('',#461,30.2894702456057);
#423=CIRCLE('',#463,18.1050006217412);
#424=CIRCLE('',#465,18.7798537847728);
#425=CIRCLE('',#466,22.4452369828036);
#426=CIRCLE('',#468,23.1200901458352);
#427=CIRCLE('',#469,30.1637165681836);
#428=CIRCLE('',#471,30.6636144983);
#429=CIRCLE('',#472,30.7897208686267);
#430=CIRCLE('',#482,30.4673586061506);
#431=CIRCLE('',#484,30.7217175081606);
#432=CIRCLE('',#486,31.5);
#433=CIRCLE('',#488,31.5);
#434=CIRCLE('',#490,30.7235090176327);
#435=CIRCLE('',#491,31.4985667924224);
#436=CIRCLE('',#493,30.7217175081606);
#437=AXIS2_PLACEMENT_3D('',#617,#497,#498);
#438=AXIS2_PLACEMENT_3D('',#618,#499,#500);
#439=AXIS2_PLACEMENT_3D('',#620,#501,#502);
#440=AXIS2_PLACEMENT_3D('',#622,#503,#504);
#441=AXIS2_PLACEMENT_3D('',#623,#505,#506);
#442=AXIS2_PLACEMENT_3D('',#625,#507,#508);
#443=AXIS2_PLACEMENT_3D('',#626,#509,#510);
#444=AXIS2_PLACEMENT_3D('',#628,#511,#512);
#445=AXIS2_PLACEMENT_3D('',#629,#513,#514);
#446=AXIS2_PLACEMENT_3D('',#631,#515,#516);
#447=AXIS2_PLACEMENT_3D('',#632,#517,#518);
#448=AXIS2_PLACEMENT_3D('',#633,#519,#520);
#449=AXIS2_PLACEMENT_3D('',#635,#521,#522);
#450=AXIS2_PLACEMENT_3D('',#637,#523,#524);
#451=AXIS2_PLACEMENT_3D('',#638,#525,#526);
#452=AXIS2_PLACEMENT_3D('',#640,#527,#528);
#453=AXIS2_PLACEMENT_3D('',#642,#529,#530);
#454=AXIS2_PLACEMENT_3D('',#643,#531,#532);
#455=AXIS2_PLACEMENT_3D('',#645,#533,#534);
#456=AXIS2_PLACEMENT_3D('',#647,#535,#536);
#457=AXIS2_PLACEMENT_3D('',#648,#537,#538);
#458=AXIS2_PLACEMENT_3D('',#650,#539,#540);
#459=AXIS2_PLACEMENT_3D('',#652,#541,#542);
#460=AXIS2_PLACEMENT_3D('',#653,#543,#544);
#461=AXIS2_PLACEMENT_3D('',#655,#545,#546);
#462=AXIS2_PLACEMENT_3D('',#657,#547,#548);
#463=AXIS2_PLACEMENT_3D('',#658,#549,#550);
#464=AXIS2_PLACEMENT_3D('',#660,#551,#552);
#465=AXIS2_PLACEMENT_3D('',#661,#553,#554);
#466=AXIS2_PLACEMENT_3D('',#663,#555,#556);
#467=AXIS2_PLACEMENT_3D('',#665,#557,#558);
#468=AXIS2_PLACEMENT_3D('',#666,#559,#560);
#469=AXIS2_PLACEMENT_3D('',#668,#561,#562);
#470=AXIS2_PLACEMENT_3D('',#670,#563,#564);
#471=AXIS2_PLACEMENT_3D('',#671,#565,#566);
#472=AXIS2_PLACEMENT_3D('',#673,#567,#568);
#473=AXIS2_PLACEMENT_3D('',#675,#569,#570);
#474=AXIS2_PLACEMENT_3D('',#676,#571,#572);
#475=AXIS2_PLACEMENT_3D('',#677,#573,#574);
#476=AXIS2_PLACEMENT_3D('',#678,#575,#576);
#477=AXIS2_PLACEMENT_3D('',#679,#577,#578);
#478=AXIS2_PLACEMENT_3D('',#680,#579,#580);
#479=AXIS2_PLACEMENT_3D('',#681,#581,#582);
#480=AXIS2_PLACEMENT_3D('',#682,#583,#584);
#481=AXIS2_PLACEMENT_3D('',#683,#585,#586);
#482=AXIS2_PLACEMENT_3D('',#684,#587,#588);
#483=AXIS2_PLACEMENT_3D('',#686,#589,#590);
#484=AXIS2_PLACEMENT_3D('',#687,#591,#592);
#485=AXIS2_PLACEMENT_3D('',#689,#593,#594);
#486=AXIS2_PLACEMENT_3D('',#690,#595,#596);
#487=AXIS2_PLACEMENT_3D('',#692,#597,#598);
#488=AXIS2_PLACEMENT_3D('',#693,#599,#600);
#489=AXIS2_PLACEMENT_3D('',#695,#601,#602);
#490=AXIS2_PLACEMENT_3D('',#696,#603,#604);
#491=AXIS2_PLACEMENT_3D('',#698,#605,#606);
#492=AXIS2_PLACEMENT_3D('',#700,#607,#608);
#493=AXIS2_PLACEMENT_3D('',#701,#609,#610);
#494=AXIS2_PLACEMENT_3D('',#703,#611,#612);
#495=AXIS2_PLACEMENT_3D('',#704,#613,#614);
#496=AXIS2_PLACEMENT_3D('',#705,#615,#616);
#497=DIRECTION('',(0.,0.,1.));
#498=DIRECTION('',(1.,0.,0.));
#499=DIRECTION('',(0.,0.,1.));
#500=DIRECTION('',(1.,0.,0.));
#501=DIRECTION('',(0.,0.,1.));
#502=DIRECTION('',(1.,0.,0.));
#503=DIRECTION('',(0.,0.,1.));
#504=DIRECTION('',(1.,0.,0.));
#505=DIRECTION('',(0.,0.,1.));
#506=DIRECTION('',(1.,0.,0.));
#507=DIRECTION('',(0.,0.,-1.));
#508=DIRECTION('',(-1.,0.,0.));
#509=DIRECTION('',(0.,0.,1.));
#510=DIRECTION('',(1.,0.,0.));
#511=DIRECTION('',(0.,0.,1.));
#512=DIRECTION('',(1.,0.,0.));
#513=DIRECTION('',(0.,0.,-1.));
#514=DIRECTION('',(1.,0.,0.));
#515=DIRECTION('',(0.,0.,1.));
#516=DIRECTION('',(1.,0.,0.));
#517=DIRECTION('',(0.,0.,1.));
#518=DIRECTION('',(1.,0.,0.));
#519=DIRECTION('',(0.,0.,-1.));
#520=DIRECTION('',(-0.453990499739547,-0.891006524188368,0.));
#521=DIRECTION('',(0.,0.,1.));
#522=DIRECTION('',(1.,0.,0.));
#523=DIRECTION('',(0.,0.,-1.));
#524=DIRECTION('',(-0.453990499739547,-0.891006524188368,2.30866329897495E-016));
#525=DIRECTION('',(0.,0.,-1.));
#526=DIRECTION('',(-0.743144825477394,-0.669130606358858,0.));
#527=DIRECTION('',(0.,0.,1.));
#528=DIRECTION('',(1.,0.,0.));
#529=DIRECTION('',(0.,0.,-1.));
#530=DIRECTION('',(-0.743144825477394,-0.669130606358858,-1.81394973490889E-016));
#531=DIRECTION('',(0.,0.,-1.));
#532=DIRECTION('',(-0.933580426497202,-0.358367949545301,0.));
#533=DIRECTION('',(0.,0.,1.));
#534=DIRECTION('',(1.,0.,0.));
#535=DIRECTION('',(0.,0.,-1.));
#536=DIRECTION('',(-0.933580426497202,-0.358367949545301,-1.15433164948747E-016));
#537=DIRECTION('',(0.,0.,-1.));
#538=DIRECTION('',(-1.,0.,0.));
#539=DIRECTION('',(0.,0.,1.));
#540=DIRECTION('',(1.,0.,0.));
#541=DIRECTION('',(0.,0.,-1.));
#542=DIRECTION('',(-1.,0.,-6.59618085421413E-017));
#543=DIRECTION('',(0.,0.,-1.));
#544=DIRECTION('',(-1.,0.,0.));
#545=DIRECTION('',(0.,0.,1.));
#546=DIRECTION('',(-1.,0.,0.));
#547=DIRECTION('',(0.,0.,-1.));
#548=DIRECTION('',(-1.,0.,0.));
#549=DIRECTION('',(0.,0.,-1.));
#550=DIRECTION('',(1.,0.,0.));
#551=DIRECTION('',(0.,0.,1.));
#552=DIRECTION('',(1.,0.,0.));
#553=DIRECTION('',(0.,0.,1.));
#554=DIRECTION('',(-1.,0.,0.));
#555=DIRECTION('',(0.,0.,-1.));
#556=DIRECTION('',(1.,0.,0.));
#557=DIRECTION('',(0.,0.,-1.));
#558=DIRECTION('',(-1.,0.,-1.59358954547654E-017));
#559=DIRECTION('',(0.,0.,1.));
#560=DIRECTION('',(1.,0.,0.));
#561=DIRECTION('',(0.,0.,-1.));
#562=DIRECTION('',(1.,0.,0.));
#563=DIRECTION('',(0.,0.,1.));
#564=DIRECTION('',(1.,0.,0.));
#565=DIRECTION('',(0.,0.,1.));
#566=DIRECTION('',(-1.,0.,0.));
#567=DIRECTION('',(0.,0.,-1.));
#568=DIRECTION('',(-1.,0.,0.));
#569=DIRECTION('',(0.,0.,1.));
#570=DIRECTION('',(1.,0.,8.16360575442066E-016));
#571=DIRECTION('',(0.,0.,-1.));
#572=DIRECTION('',(-1.,0.,1.49372967666944E-016));
#573=DIRECTION('',(0.,0.,1.));
#574=DIRECTION('',(1.,0.,0.));
#575=DIRECTION('',(0.,0.,1.));
#576=DIRECTION('',(1.,0.,0.));
#577=DIRECTION('',(0.,0.,1.));
#578=DIRECTION('',(1.,0.,0.));
#579=DIRECTION('',(0.,0.,1.));
#580=DIRECTION('',(1.,0.,-2.33542690654004E-016));
#581=DIRECTION('',(0.,0.,1.));
#582=DIRECTION('',(0.933580426497202,0.358367949545301,-5.83856726635009E-016));
#583=DIRECTION('',(0.,0.,1.));
#584=DIRECTION('',(0.743144825477394,0.669130606358858,8.17399417289013E-016));
#585=DIRECTION('',(0.,0.,1.));
#586=DIRECTION('',(0.453990499739547,0.891006524188368,0.));
#587=DIRECTION('',(0.,0.,-1.));
#588=DIRECTION('',(-1.,0.,0.));
#589=DIRECTION('',(0.,0.,1.));
#590=DIRECTION('',(0.104528463267653,0.994521895368274,-4.67085381308008E-016));
#591=DIRECTION('',(0.,0.,-1.));
#592=DIRECTION('',(-1.,0.,0.));
#593=DIRECTION('',(0.,0.,-1.));
#594=DIRECTION('',(-1.,0.,0.));
#595=DIRECTION('',(0.,0.,-1.));
#596=DIRECTION('',(-1.,0.,0.));
#597=DIRECTION('',(0.,0.,-1.));
#598=DIRECTION('',(-1.,0.,0.));
#599=DIRECTION('',(0.,0.,1.));
#600=DIRECTION('',(1.,0.,0.));
#601=DIRECTION('',(0.,0.,-1.));
#602=DIRECTION('',(-1.,0.,0.));
#603=DIRECTION('',(0.,0.,1.));
#604=DIRECTION('',(1.,0.,0.));
#605=DIRECTION('',(0.,0.,-1.));
#606=DIRECTION('',(-1.,0.,0.));
#607=DIRECTION('',(0.,0.,1.));
#608=DIRECTION('',(1.,0.,-2.02300684904122E-016));
#609=DIRECTION('',(0.,0.,-1.));
#610=DIRECTION('',(-1.,0.,0.));
#611=DIRECTION('',(0.,0.,-1.));
#612=DIRECTION('',(-1.,0.,0.));
#613=DIRECTION('',(0.,0.,1.));
#614=DIRECTION('',(1.,0.,0.));
#615=DIRECTION('',(0.,0.,-1.));
#616=DIRECTION('',(-1.,0.,0.));
#617=CARTESIAN_POINT('',(0.,0.,0.));
#618=CARTESIAN_POINT('',(0.,0.,-79.6));
#619=CARTESIAN_POINT('',(31.5,0.,-79.6));
#620=CARTESIAN_POINT('',(0.,0.,-34.));
#621=CARTESIAN_POINT('',(31.5,0.,-34.));
#622=CARTESIAN_POINT('',(0.,0.,35.7057520950812));
#623=CARTESIAN_POINT('',(0.,0.,-34.));
#624=CARTESIAN_POINT('',(21.5,0.,-34.));
#625=CARTESIAN_POINT('',(-31.5,0.,-34.));
#626=CARTESIAN_POINT('',(0.,0.,-80.));
#627=CARTESIAN_POINT('',(21.5,0.,-80.));
#628=CARTESIAN_POINT('',(0.,0.,35.7057520950812));
#629=CARTESIAN_POINT('',(0.,0.,-80.));
#630=CARTESIAN_POINT('',(31.1,0.,-80.));
#631=CARTESIAN_POINT('',(-21.5,0.,-80.));
#632=CARTESIAN_POINT('',(0.,0.,-79.6));
#633=CARTESIAN_POINT('',(-7.73401578464474E-017,3.94067786906812E-017,-43.259172462121));
#634=CARTESIAN_POINT('',(-13.8318913593503,-27.1466152928668,-43.259172462121));
#635=CARTESIAN_POINT('',(-7.73401578464474E-017,3.94067786906812E-017,-42.7520548290687));
#636=CARTESIAN_POINT('',(30.2692191295581,3.94067786906812E-017,-42.7520548290687));
#637=CARTESIAN_POINT('',(-7.73401578464474E-017,3.94067786906812E-017,-42.2307104380209));
#638=CARTESIAN_POINT('',(-5.80811310700825E-017,6.45056310418683E-017,-50.609172462121));
#639=CARTESIAN_POINT('',(-22.641659894125,-20.3866421382863,-50.609172462121));
#640=CARTESIAN_POINT('',(-5.80811310700825E-017,6.45056310418683E-017,-50.1020548290687));
#641=CARTESIAN_POINT('',(30.2692191295581,6.45056310418683E-017,-50.1020548290687));
#642=CARTESIAN_POINT('',(-5.80811310700825E-017,6.45056310418683E-017,-49.580710438021));
#643=CARTESIAN_POINT('',(-3.11066563852475E-017,8.10356103883957E-017,-57.959172462121));
#644=CARTESIAN_POINT('',(-28.4437296417733,-10.9185248317476,-57.959172462121));
#645=CARTESIAN_POINT('',(-3.11066563852475E-017,8.10356103883957E-017,-57.4520548290687));
#646=CARTESIAN_POINT('',(30.2692191295581,8.10356103883957E-017,-57.4520548290687));
#647=CARTESIAN_POINT('',(-3.11066563852475E-017,8.10356103883957E-017,-56.930710438021));
#648=CARTESIAN_POINT('',(0.,0.,-65.309172462121));
#649=CARTESIAN_POINT('',(-30.4673586061506,0.,-65.309172462121));
#650=CARTESIAN_POINT('',(0.,0.,-64.8020548290687));
#651=CARTESIAN_POINT('',(30.2692191295581,0.,-64.8020548290687));
#652=CARTESIAN_POINT('',(0.,0.,-64.2807104380209));
#653=CARTESIAN_POINT('',(0.,0.,-71.4526686830249));
#654=CARTESIAN_POINT('',(-30.3766809888082,0.,-71.4526686830249));
#655=CARTESIAN_POINT('',(0.,0.,-71.4526686830249));
#656=CARTESIAN_POINT('',(-30.2894702456057,0.,-71.4526686830249));
#657=CARTESIAN_POINT('',(0.,0.,-71.4526686830249));
#658=CARTESIAN_POINT('',(0.,0.,-78.3930378961549));
#659=CARTESIAN_POINT('',(18.1050006217412,0.,-78.3930378961549));
#660=CARTESIAN_POINT('',(-18.4468074466461,0.,-78.3930378961549));
#661=CARTESIAN_POINT('',(0.,0.,-78.4699277017992));
#662=CARTESIAN_POINT('',(-18.7798537847728,0.,-78.4699277017992));
#663=CARTESIAN_POINT('',(0.,0.,-79.3161480905106));
#664=CARTESIAN_POINT('',(22.4452369828036,0.,-79.3161480905106));
#665=CARTESIAN_POINT('',(0.,0.,-79.3930378961549));
#666=CARTESIAN_POINT('',(0.,0.,-79.3930378961549));
#667=CARTESIAN_POINT('',(23.1200901458352,0.,-79.3930378961549));
#668=CARTESIAN_POINT('',(0.,0.,-79.3930378961549));
#669=CARTESIAN_POINT('',(30.1637165681836,0.,-79.3930378961549));
#670=CARTESIAN_POINT('',(-30.6537141476946,0.,-79.3930378961549));
#671=CARTESIAN_POINT('',(0.,0.,-78.9031403446356));
#672=CARTESIAN_POINT('',(-30.6636144983,0.,-78.9031403446356));
#673=CARTESIAN_POINT('',(0.,0.,-72.6630378961548));
#674=CARTESIAN_POINT('',(-30.7897208686267,0.,-72.6630378961548));
#675=CARTESIAN_POINT('',(0.,0.,-72.6630378961548));
#676=CARTESIAN_POINT('',(0.,0.,-71.4526686830249));
#677=CARTESIAN_POINT('',(0.,0.,-78.8930378961549));
#678=CARTESIAN_POINT('',(0.,0.,-81.3930378961549));
#679=CARTESIAN_POINT('',(0.,0.,-76.3930378961549));
#680=CARTESIAN_POINT('',(0.,0.,-65.309172462121));
#681=CARTESIAN_POINT('',(-3.11066563852475E-017,8.10356103883957E-017,-57.959172462121));
#682=CARTESIAN_POINT('',(-5.80811310700825E-017,6.45056310418683E-017,-50.609172462121));
#683=CARTESIAN_POINT('',(-7.73401578464474E-017,3.94067786906812E-017,-43.259172462121));
#684=CARTESIAN_POINT('',(-8.63253840252125E-017,9.07316347198566E-018,-35.909172462121));
#685=CARTESIAN_POINT('',(-30.4673586061506,9.07316347198566E-018,-35.909172462121));
#686=CARTESIAN_POINT('',(-8.63253840252125E-017,9.07316347198566E-018,-35.909172462121));
#687=CARTESIAN_POINT('',(0.,0.,-35.909172462121));
#688=CARTESIAN_POINT('',(-30.7217175081606,0.,-35.909172462121));
#689=CARTESIAN_POINT('',(0.,0.,-35.909172462121));
#690=CARTESIAN_POINT('',(0.,0.,0.));
#691=CARTESIAN_POINT('',(-31.5,0.,0.));
#692=CARTESIAN_POINT('',(0.,0.,0.));
#693=CARTESIAN_POINT('',(0.,0.,-12.3242709756386));
#694=CARTESIAN_POINT('',(31.5,0.,-12.3242709756386));
#695=CARTESIAN_POINT('',(0.,0.,21.1348153402073));
#696=CARTESIAN_POINT('',(0.,0.,-32.8618757392108));
#697=CARTESIAN_POINT('',(30.7235090176327,0.,-32.8618757392108));
#698=CARTESIAN_POINT('',(0.,0.,-12.3999728661476));
#699=CARTESIAN_POINT('',(-31.4985667924224,0.,-12.3999728661476));
#700=CARTESIAN_POINT('',(0.,0.,-32.909172462121));
#701=CARTESIAN_POINT('',(0.,0.,-32.9565031023471));
#702=CARTESIAN_POINT('',(-30.7217175081606,0.,-32.9565031023471));
#703=CARTESIAN_POINT('',(0.,0.,21.1348153402073));
#704=CARTESIAN_POINT('',(0.,0.,-12.3242709756386));
#705=CARTESIAN_POINT('',(0.,0.,-32.9565031023471));
#706=MECHANICAL_DESIGN_GEOMETRIC_PRESENTATION_REPRESENTATION('',(#111,#112),
#707);
#707=(
GEOMETRIC_REPRESENTATION_CONTEXT(3)
GLOBAL_UNCERTAINTY_ASSIGNED_CONTEXT((#708))
GLOBAL_UNIT_ASSIGNED_CONTEXT((#714,#710,#709))
REPRESENTATION_CONTEXT('3448_1_3D','TOP_LEVEL_ASSEMBLY_PART')
);
#708=UNCERTAINTY_MEASURE_WITH_UNIT(LENGTH_MEASURE(2.E-005),#714,
'DISTANCE_ACCURACY_VALUE','Maximum Tolerance applied to model');
#709=(
NAMED_UNIT(*)
SI_UNIT($,.STERADIAN.)
SOLID_ANGLE_UNIT()
);
#710=(
CONVERSION_BASED_UNIT('DEGREE',#712)
NAMED_UNIT(#711)
PLANE_ANGLE_UNIT()
);
#711=DIMENSIONAL_EXPONENTS(0.,0.,0.,0.,0.,0.,0.);
#712=PLANE_ANGLE_MEASURE_WITH_UNIT(PLANE_ANGLE_MEASURE(0.0174532925),#713);
#713=(
NAMED_UNIT(*)
PLANE_ANGLE_UNIT()
SI_UNIT($,.RADIAN.)
);
#714=(
LENGTH_UNIT()
NAMED_UNIT(*)
SI_UNIT(.MILLI.,.METRE.)
);
ENDSEC;
END-ISO-10303-21;
