ISO-10303-21;
HEADER;
/* Generated by software containing ST-Developer
 * from STEP Tools, Inc. (www.steptools.com) 
 */
/* OPTION: using custom schema-name function */

FILE_DESCRIPTION(
/* description */ (''),
/* implementation_level */ '2;1');

FILE_NAME(
/* name */ '1529305217708.stp',
/* time_stamp */ '2018-06-18T09:00:24+02:00',
/* author */ (''),
/* organization */ ('SMS'),
/* preprocessor_version */ 'ST-DEVELOPER v15',
/* originating_system */ 'SIEMENS PLM Software NX 8.5',
/* authorisation */ '');

FILE_SCHEMA (('AUTOMOTIVE_DESIGN { 1 0 10303 214 3 1 1 1 }'));
ENDSEC;

DATA;
#10=CONSTRUCTIVE_GEOMETRY_REPRESENTATION_RELATIONSHIP(
'supplemental geometry','',#26,#11);
#11=CONSTRUCTIVE_GEOMETRY_REPRESENTATION('supplemental geometry',(#348,
#349,#350,#351),#622);
#12=GEOMETRICALLY_BOUNDED_WIREFRAME_SHAPE_REPRESENTATION(
'570-40_22-32-None',(#27),#622);
#13=SHAPE_REPRESENTATION_RELATIONSHIP('None',
'relationship between 570-40_22-32-None and 570-40_22-32-None',#26,#15);
#14=SHAPE_REPRESENTATION_RELATIONSHIP('None',
'relationship between 570-40_22-32-None and 570-40_22-32-None',#26,#12);
#15=ADVANCED_BREP_SHAPE_REPRESENTATION('570-40_22-32-None',(#33),#622);
#16=SHAPE_DEFINITION_REPRESENTATION(#17,#26);
#17=PRODUCT_DEFINITION_SHAPE('','',#18);
#18=PRODUCT_DEFINITION(' ','',#20,#19);
#19=PRODUCT_DEFINITION_CONTEXT('part definition',#25,'design');
#20=PRODUCT_DEFINITION_FORMATION_WITH_SPECIFIED_SOURCE(' ',' ',#22,
 .NOT_KNOWN.);
#21=PRODUCT_RELATED_PRODUCT_CATEGORY('part','',(#22));
#22=PRODUCT('570-40_22-32','570-40_22-32',' ',(#23));
#23=PRODUCT_CONTEXT(' ',#25,'mechanical');
#24=APPLICATION_PROTOCOL_DEFINITION('international standard',
'automotive_design',2010,#25);
#25=APPLICATION_CONTEXT(
'core data for automotive mechanical design processes');
#26=SHAPE_REPRESENTATION('570-40_22-32-None',(#347),#622);
#27=GEOMETRIC_CURVE_SET('None',(#510,#511,#512));
#28=SURFACE_STYLE_USAGE(.BOTH.,#29);
#29=SURFACE_SIDE_STYLE('',(#30));
#30=SURFACE_STYLE_FILL_AREA(#31);
#31=FILL_AREA_STYLE('',(#32));
#32=FILL_AREA_STYLE_COLOUR('',#346);
#33=MANIFOLD_SOLID_BREP('NOCUT',#34);
#34=CLOSED_SHELL('',(#92,#93,#94,#95,#96,#97,#98,#99,#100,#101,#102,#103,
#104,#105,#106,#107,#108,#109,#110,#111,#112,#113,#114,#115,#116));
#35=PLANE('',#362);
#36=PLANE('',#364);
#37=PLANE('',#374);
#38=PLANE('',#378);
#39=PLANE('',#383);
#40=PLANE('',#386);
#41=PLANE('',#390);
#42=PLANE('',#393);
#43=PLANE('',#397);
#44=PLANE('',#400);
#45=CYLINDRICAL_SURFACE('',#358,20.);
#46=CYLINDRICAL_SURFACE('',#368,16.);
#47=CYLINDRICAL_SURFACE('',#376,3.);
#48=CYLINDRICAL_SURFACE('',#381,2.5);
#49=CYLINDRICAL_SURFACE('',#385,4.25);
#50=CYLINDRICAL_SURFACE('',#388,2.5);
#51=CYLINDRICAL_SURFACE('',#392,4.25);
#52=CYLINDRICAL_SURFACE('',#395,2.5);
#53=CYLINDRICAL_SURFACE('',#399,4.25);
#54=FACE_BOUND('',#131,.T.);
#55=FACE_BOUND('',#132,.T.);
#56=FACE_BOUND('',#133,.T.);
#57=FACE_BOUND('',#134,.T.);
#58=FACE_BOUND('',#135,.T.);
#59=FACE_BOUND('',#136,.T.);
#60=FACE_BOUND('',#139,.T.);
#61=FACE_BOUND('',#140,.T.);
#62=FACE_BOUND('',#141,.T.);
#63=FACE_BOUND('',#142,.T.);
#64=FACE_BOUND('',#143,.T.);
#65=FACE_BOUND('',#144,.T.);
#66=FACE_BOUND('',#145,.T.);
#67=FACE_BOUND('',#146,.T.);
#68=FACE_BOUND('',#147,.T.);
#69=FACE_BOUND('',#148,.T.);
#70=FACE_BOUND('',#150,.T.);
#71=FACE_BOUND('',#151,.T.);
#72=FACE_BOUND('',#152,.T.);
#73=FACE_BOUND('',#153,.T.);
#74=FACE_BOUND('',#155,.T.);
#75=FACE_BOUND('',#156,.T.);
#76=FACE_BOUND('',#157,.T.);
#77=FACE_BOUND('',#158,.T.);
#78=FACE_BOUND('',#159,.T.);
#79=FACE_BOUND('',#160,.T.);
#80=FACE_BOUND('',#162,.T.);
#81=FACE_BOUND('',#163,.T.);
#82=FACE_BOUND('',#164,.T.);
#83=FACE_BOUND('',#165,.T.);
#84=FACE_BOUND('',#166,.T.);
#85=FACE_BOUND('',#167,.T.);
#86=FACE_BOUND('',#169,.T.);
#87=FACE_BOUND('',#170,.T.);
#88=FACE_BOUND('',#171,.T.);
#89=FACE_BOUND('',#172,.T.);
#90=TOROIDAL_SURFACE('',#355,20.8,0.800000000000001);
#91=TOROIDAL_SURFACE('',#366,16.8,0.8);
#92=ADVANCED_FACE('',(#121),#117,.T.);
#93=ADVANCED_FACE('',(#122),#90,.F.);
#94=ADVANCED_FACE('',(#54,#55),#45,.T.);
#95=ADVANCED_FACE('',(#56,#57),#118,.T.);
#96=ADVANCED_FACE('',(#58,#59),#35,.T.);
#97=ADVANCED_FACE('',(#123),#36,.T.);
#98=ADVANCED_FACE('',(#124),#91,.F.);
#99=ADVANCED_FACE('',(#60,#61),#46,.T.);
#100=ADVANCED_FACE('',(#62,#63),#119,.T.);
#101=ADVANCED_FACE('',(#64,#65,#66,#67),#37,.T.);
#102=ADVANCED_FACE('',(#68,#69),#47,.T.);
#103=ADVANCED_FACE('',(#125),#38,.T.);
#104=ADVANCED_FACE('',(#70,#71),#120,.T.);
#105=ADVANCED_FACE('',(#72,#73),#48,.T.);
#106=ADVANCED_FACE('',(#126),#39,.T.);
#107=ADVANCED_FACE('',(#74,#75),#49,.T.);
#108=ADVANCED_FACE('',(#76,#77),#40,.T.);
#109=ADVANCED_FACE('',(#78,#79),#50,.T.);
#110=ADVANCED_FACE('',(#127),#41,.T.);
#111=ADVANCED_FACE('',(#80,#81),#51,.T.);
#112=ADVANCED_FACE('',(#82,#83),#42,.T.);
#113=ADVANCED_FACE('',(#84,#85),#52,.T.);
#114=ADVANCED_FACE('',(#128),#43,.T.);
#115=ADVANCED_FACE('',(#86,#87),#53,.T.);
#116=ADVANCED_FACE('',(#88,#89),#44,.T.);
#117=CONICAL_SURFACE('',#353,30.,70.8964717716601);
#118=CONICAL_SURFACE('',#360,20.,45.);
#119=CONICAL_SURFACE('',#370,16.,45.0000000000001);
#120=CONICAL_SURFACE('',#379,3.,30.);
#121=FACE_OUTER_BOUND('',#129,.T.);
#122=FACE_OUTER_BOUND('',#130,.T.);
#123=FACE_OUTER_BOUND('',#137,.T.);
#124=FACE_OUTER_BOUND('',#138,.T.);
#125=FACE_OUTER_BOUND('',#149,.T.);
#126=FACE_OUTER_BOUND('',#154,.T.);
#127=FACE_OUTER_BOUND('',#161,.T.);
#128=FACE_OUTER_BOUND('',#168,.T.);
#129=EDGE_LOOP('',(#178,#179,#180,#181));
#130=EDGE_LOOP('',(#182,#183,#184,#185));
#131=EDGE_LOOP('',(#186));
#132=EDGE_LOOP('',(#187,#188));
#133=EDGE_LOOP('',(#189));
#134=EDGE_LOOP('',(#190));
#135=EDGE_LOOP('',(#191));
#136=EDGE_LOOP('',(#192));
#137=EDGE_LOOP('',(#193,#194));
#138=EDGE_LOOP('',(#195,#196,#197,#198,#199,#200));
#139=EDGE_LOOP('',(#201));
#140=EDGE_LOOP('',(#202,#203));
#141=EDGE_LOOP('',(#204));
#142=EDGE_LOOP('',(#205));
#143=EDGE_LOOP('',(#206));
#144=EDGE_LOOP('',(#207));
#145=EDGE_LOOP('',(#208));
#146=EDGE_LOOP('',(#209));
#147=EDGE_LOOP('',(#210));
#148=EDGE_LOOP('',(#211));
#149=EDGE_LOOP('',(#212));
#150=EDGE_LOOP('',(#213));
#151=EDGE_LOOP('',(#214));
#152=EDGE_LOOP('',(#215));
#153=EDGE_LOOP('',(#216));
#154=EDGE_LOOP('',(#217));
#155=EDGE_LOOP('',(#218));
#156=EDGE_LOOP('',(#219));
#157=EDGE_LOOP('',(#220));
#158=EDGE_LOOP('',(#221));
#159=EDGE_LOOP('',(#222));
#160=EDGE_LOOP('',(#223));
#161=EDGE_LOOP('',(#224));
#162=EDGE_LOOP('',(#225));
#163=EDGE_LOOP('',(#226));
#164=EDGE_LOOP('',(#227));
#165=EDGE_LOOP('',(#228));
#166=EDGE_LOOP('',(#229));
#167=EDGE_LOOP('',(#230));
#168=EDGE_LOOP('',(#231));
#169=EDGE_LOOP('',(#232));
#170=EDGE_LOOP('',(#233));
#171=EDGE_LOOP('',(#234));
#172=EDGE_LOOP('',(#235));
#173=B_SPLINE_CURVE_WITH_KNOTS('',3,(#520,#521,#522,#523),.UNSPECIFIED.,
 .F.,.F.,(4,4),(0.,1.),.UNSPECIFIED.);
#174=B_SPLINE_CURVE_WITH_KNOTS('',3,(#525,#526,#527,#528,#529,#530,#531,
#532,#533,#534),.UNSPECIFIED.,.F.,.F.,(4,2,2,2,4),(0.,0.25,0.5,0.75,1.),
 .UNSPECIFIED.);
#175=B_SPLINE_CURVE_WITH_KNOTS('',3,(#536,#537,#538,#539),.UNSPECIFIED.,
 .F.,.F.,(4,4),(0.,1.),.UNSPECIFIED.);
#176=B_SPLINE_CURVE_WITH_KNOTS('',3,(#544,#545,#546,#547,#548,#549),
 .UNSPECIFIED.,.F.,.F.,(4,2,4),(0.,0.5,1.),.UNSPECIFIED.);
#177=B_SPLINE_CURVE_WITH_KNOTS('',3,(#550,#551,#552,#553,#554,#555),
 .UNSPECIFIED.,.F.,.F.,(4,2,4),(0.,0.5,1.),.UNSPECIFIED.);
#178=ORIENTED_EDGE('',*,*,#261,.T.);
#179=ORIENTED_EDGE('',*,*,#262,.T.);
#180=ORIENTED_EDGE('',*,*,#263,.T.);
#181=ORIENTED_EDGE('',*,*,#264,.T.);
#182=ORIENTED_EDGE('',*,*,#265,.T.);
#183=ORIENTED_EDGE('',*,*,#266,.T.);
#184=ORIENTED_EDGE('',*,*,#261,.F.);
#185=ORIENTED_EDGE('',*,*,#267,.T.);
#186=ORIENTED_EDGE('',*,*,#268,.T.);
#187=ORIENTED_EDGE('',*,*,#265,.F.);
#188=ORIENTED_EDGE('',*,*,#269,.T.);
#189=ORIENTED_EDGE('',*,*,#270,.T.);
#190=ORIENTED_EDGE('',*,*,#268,.F.);
#191=ORIENTED_EDGE('',*,*,#271,.F.);
#192=ORIENTED_EDGE('',*,*,#270,.F.);
#193=ORIENTED_EDGE('',*,*,#272,.F.);
#194=ORIENTED_EDGE('',*,*,#269,.F.);
#195=ORIENTED_EDGE('',*,*,#266,.F.);
#196=ORIENTED_EDGE('',*,*,#272,.T.);
#197=ORIENTED_EDGE('',*,*,#267,.F.);
#198=ORIENTED_EDGE('',*,*,#264,.F.);
#199=ORIENTED_EDGE('',*,*,#273,.F.);
#200=ORIENTED_EDGE('',*,*,#262,.F.);
#201=ORIENTED_EDGE('',*,*,#274,.F.);
#202=ORIENTED_EDGE('',*,*,#273,.T.);
#203=ORIENTED_EDGE('',*,*,#263,.F.);
#204=ORIENTED_EDGE('',*,*,#275,.T.);
#205=ORIENTED_EDGE('',*,*,#274,.T.);
#206=ORIENTED_EDGE('',*,*,#276,.F.);
#207=ORIENTED_EDGE('',*,*,#277,.F.);
#208=ORIENTED_EDGE('',*,*,#278,.F.);
#209=ORIENTED_EDGE('',*,*,#275,.F.);
#210=ORIENTED_EDGE('',*,*,#279,.T.);
#211=ORIENTED_EDGE('',*,*,#271,.T.);
#212=ORIENTED_EDGE('',*,*,#280,.T.);
#213=ORIENTED_EDGE('',*,*,#280,.F.);
#214=ORIENTED_EDGE('',*,*,#279,.F.);
#215=ORIENTED_EDGE('',*,*,#278,.T.);
#216=ORIENTED_EDGE('',*,*,#281,.F.);
#217=ORIENTED_EDGE('',*,*,#282,.T.);
#218=ORIENTED_EDGE('',*,*,#283,.T.);
#219=ORIENTED_EDGE('',*,*,#282,.F.);
#220=ORIENTED_EDGE('',*,*,#281,.T.);
#221=ORIENTED_EDGE('',*,*,#283,.F.);
#222=ORIENTED_EDGE('',*,*,#277,.T.);
#223=ORIENTED_EDGE('',*,*,#284,.F.);
#224=ORIENTED_EDGE('',*,*,#285,.T.);
#225=ORIENTED_EDGE('',*,*,#286,.T.);
#226=ORIENTED_EDGE('',*,*,#285,.F.);
#227=ORIENTED_EDGE('',*,*,#284,.T.);
#228=ORIENTED_EDGE('',*,*,#286,.F.);
#229=ORIENTED_EDGE('',*,*,#276,.T.);
#230=ORIENTED_EDGE('',*,*,#287,.F.);
#231=ORIENTED_EDGE('',*,*,#288,.T.);
#232=ORIENTED_EDGE('',*,*,#289,.T.);
#233=ORIENTED_EDGE('',*,*,#288,.F.);
#234=ORIENTED_EDGE('',*,*,#287,.T.);
#235=ORIENTED_EDGE('',*,*,#289,.F.);
#236=VERTEX_POINT('',#518);
#237=VERTEX_POINT('',#519);
#238=VERTEX_POINT('',#524);
#239=VERTEX_POINT('',#535);
#240=VERTEX_POINT('',#542);
#241=VERTEX_POINT('',#543);
#242=VERTEX_POINT('',#558);
#243=VERTEX_POINT('',#562);
#244=VERTEX_POINT('',#565);
#245=VERTEX_POINT('',#572);
#246=VERTEX_POINT('',#575);
#247=VERTEX_POINT('',#578);
#248=VERTEX_POINT('',#580);
#249=VERTEX_POINT('',#582);
#250=VERTEX_POINT('',#585);
#251=VERTEX_POINT('',#588);
#252=VERTEX_POINT('',#592);
#253=VERTEX_POINT('',#595);
#254=VERTEX_POINT('',#598);
#255=VERTEX_POINT('',#602);
#256=VERTEX_POINT('',#605);
#257=VERTEX_POINT('',#608);
#258=VERTEX_POINT('',#612);
#259=VERTEX_POINT('',#615);
#260=VERTEX_POINT('',#618);
#261=EDGE_CURVE('',#236,#237,#290,.T.);
#262=EDGE_CURVE('',#237,#238,#173,.T.);
#263=EDGE_CURVE('',#238,#239,#174,.T.);
#264=EDGE_CURVE('',#239,#236,#175,.T.);
#265=EDGE_CURVE('',#240,#241,#291,.T.);
#266=EDGE_CURVE('',#241,#237,#176,.T.);
#267=EDGE_CURVE('',#236,#240,#177,.T.);
#268=EDGE_CURVE('',#242,#242,#292,.T.);
#269=EDGE_CURVE('',#240,#241,#293,.T.);
#270=EDGE_CURVE('',#243,#243,#294,.T.);
#271=EDGE_CURVE('',#244,#244,#295,.T.);
#272=EDGE_CURVE('',#241,#240,#296,.T.);
#273=EDGE_CURVE('',#238,#239,#297,.T.);
#274=EDGE_CURVE('',#245,#245,#298,.T.);
#275=EDGE_CURVE('',#246,#246,#299,.T.);
#276=EDGE_CURVE('',#247,#247,#300,.T.);
#277=EDGE_CURVE('',#248,#248,#301,.T.);
#278=EDGE_CURVE('',#249,#249,#302,.T.);
#279=EDGE_CURVE('',#250,#250,#303,.T.);
#280=EDGE_CURVE('',#251,#251,#304,.T.);
#281=EDGE_CURVE('',#252,#252,#305,.T.);
#282=EDGE_CURVE('',#253,#253,#306,.T.);
#283=EDGE_CURVE('',#254,#254,#307,.T.);
#284=EDGE_CURVE('',#255,#255,#308,.T.);
#285=EDGE_CURVE('',#256,#256,#309,.T.);
#286=EDGE_CURVE('',#257,#257,#310,.T.);
#287=EDGE_CURVE('',#258,#258,#311,.T.);
#288=EDGE_CURVE('',#259,#259,#312,.T.);
#289=EDGE_CURVE('',#260,#260,#313,.T.);
#290=CIRCLE('',#352,20.5381791299537);
#291=CIRCLE('',#354,20.);
#292=CIRCLE('',#356,20.);
#293=CIRCLE('',#357,20.);
#294=CIRCLE('',#359,19.325);
#295=CIRCLE('',#361,3.);
#296=CIRCLE('',#363,16.8);
#297=CIRCLE('',#365,16.);
#298=CIRCLE('',#367,16.);
#299=CIRCLE('',#369,15.35);
#300=CIRCLE('',#371,2.5);
#301=CIRCLE('',#372,2.5);
#302=CIRCLE('',#373,2.5);
#303=CIRCLE('',#375,3.);
#304=CIRCLE('',#377,2.65358983848623);
#305=CIRCLE('',#380,2.5);
#306=CIRCLE('',#382,4.25);
#307=CIRCLE('',#384,4.25);
#308=CIRCLE('',#387,2.5);
#309=CIRCLE('',#389,4.25);
#310=CIRCLE('',#391,4.25);
#311=CIRCLE('',#394,2.5);
#312=CIRCLE('',#396,4.25);
#313=CIRCLE('',#398,4.25);
#314=CURVE_STYLE('',#318,POSITIVE_LENGTH_MEASURE(0.18),#345);
#315=CURVE_STYLE('',#319,POSITIVE_LENGTH_MEASURE(0.18),#345);
#316=CURVE_STYLE('',#320,POSITIVE_LENGTH_MEASURE(0.18),#345);
#317=CURVE_STYLE('',#321,POSITIVE_LENGTH_MEASURE(0.13),#345);
#318=DRAUGHTING_PRE_DEFINED_CURVE_FONT('continuous');
#319=DRAUGHTING_PRE_DEFINED_CURVE_FONT('continuous');
#320=DRAUGHTING_PRE_DEFINED_CURVE_FONT('continuous');
#321=DRAUGHTING_PRE_DEFINED_CURVE_FONT('continuous');
#322=PRESENTATION_LAYER_ASSIGNMENT('1','Layer 1',(#510,#511,#512,#348,#349,
#350,#351,#33));
#323=STYLED_ITEM('',(#331),#510);
#324=STYLED_ITEM('',(#332),#511);
#325=STYLED_ITEM('',(#333),#512);
#326=STYLED_ITEM('',(#334),#348);
#327=STYLED_ITEM('',(#335),#349);
#328=STYLED_ITEM('',(#336),#350);
#329=STYLED_ITEM('',(#337),#351);
#330=STYLED_ITEM('',(#338),#33);
#331=PRESENTATION_STYLE_ASSIGNMENT((#339));
#332=PRESENTATION_STYLE_ASSIGNMENT((#340));
#333=PRESENTATION_STYLE_ASSIGNMENT((#341));
#334=PRESENTATION_STYLE_ASSIGNMENT((#314));
#335=PRESENTATION_STYLE_ASSIGNMENT((#315));
#336=PRESENTATION_STYLE_ASSIGNMENT((#316));
#337=PRESENTATION_STYLE_ASSIGNMENT((#317));
#338=PRESENTATION_STYLE_ASSIGNMENT((#28));
#339=POINT_STYLE('',#342,POSITIVE_LENGTH_MEASURE(3.),#345);
#340=POINT_STYLE('',#343,POSITIVE_LENGTH_MEASURE(3.),#345);
#341=POINT_STYLE('',#344,POSITIVE_LENGTH_MEASURE(3.),#345);
#342=PRE_DEFINED_POINT_MARKER_SYMBOL('plus');
#343=PRE_DEFINED_POINT_MARKER_SYMBOL('plus');
#344=PRE_DEFINED_POINT_MARKER_SYMBOL('plus');
#345=COLOUR_RGB('Strong Stone',0.576470588235294,0.54508278019379,0.392156862745098);
#346=COLOUR_RGB('TLS_NOCUT',0.501960784313725,0.501960784313725,0.501960784313725);
#347=AXIS2_PLACEMENT_3D('',#509,#401,#402);
#348=AXIS2_PLACEMENT_3D('MCS',#513,#403,#404);
#349=AXIS2_PLACEMENT_3D('PCS',#514,#405,#406);
#350=AXIS2_PLACEMENT_3D('CSW',#515,#407,#408);
#351=AXIS2_PLACEMENT_3D('',#516,#409,#410);
#352=AXIS2_PLACEMENT_3D('',#517,#411,#412);
#353=AXIS2_PLACEMENT_3D('',#540,#413,#414);
#354=AXIS2_PLACEMENT_3D('',#541,#415,#416);
#355=AXIS2_PLACEMENT_3D('',#556,#417,#418);
#356=AXIS2_PLACEMENT_3D('',#557,#419,#420);
#357=AXIS2_PLACEMENT_3D('',#559,#421,#422);
#358=AXIS2_PLACEMENT_3D('',#560,#423,#424);
#359=AXIS2_PLACEMENT_3D('',#561,#425,#426);
#360=AXIS2_PLACEMENT_3D('',#563,#427,#428);
#361=AXIS2_PLACEMENT_3D('',#564,#429,#430);
#362=AXIS2_PLACEMENT_3D('',#566,#431,#432);
#363=AXIS2_PLACEMENT_3D('',#567,#433,#434);
#364=AXIS2_PLACEMENT_3D('',#568,#435,#436);
#365=AXIS2_PLACEMENT_3D('',#569,#437,#438);
#366=AXIS2_PLACEMENT_3D('',#570,#439,#440);
#367=AXIS2_PLACEMENT_3D('',#571,#441,#442);
#368=AXIS2_PLACEMENT_3D('',#573,#443,#444);
#369=AXIS2_PLACEMENT_3D('',#574,#445,#446);
#370=AXIS2_PLACEMENT_3D('',#576,#447,#448);
#371=AXIS2_PLACEMENT_3D('',#577,#449,#450);
#372=AXIS2_PLACEMENT_3D('',#579,#451,#452);
#373=AXIS2_PLACEMENT_3D('',#581,#453,#454);
#374=AXIS2_PLACEMENT_3D('',#583,#455,#456);
#375=AXIS2_PLACEMENT_3D('',#584,#457,#458);
#376=AXIS2_PLACEMENT_3D('',#586,#459,#460);
#377=AXIS2_PLACEMENT_3D('',#587,#461,#462);
#378=AXIS2_PLACEMENT_3D('',#589,#463,#464);
#379=AXIS2_PLACEMENT_3D('',#590,#465,#466);
#380=AXIS2_PLACEMENT_3D('',#591,#467,#468);
#381=AXIS2_PLACEMENT_3D('',#593,#469,#470);
#382=AXIS2_PLACEMENT_3D('',#594,#471,#472);
#383=AXIS2_PLACEMENT_3D('',#596,#473,#474);
#384=AXIS2_PLACEMENT_3D('',#597,#475,#476);
#385=AXIS2_PLACEMENT_3D('',#599,#477,#478);
#386=AXIS2_PLACEMENT_3D('',#600,#479,#480);
#387=AXIS2_PLACEMENT_3D('',#601,#481,#482);
#388=AXIS2_PLACEMENT_3D('',#603,#483,#484);
#389=AXIS2_PLACEMENT_3D('',#604,#485,#486);
#390=AXIS2_PLACEMENT_3D('',#606,#487,#488);
#391=AXIS2_PLACEMENT_3D('',#607,#489,#490);
#392=AXIS2_PLACEMENT_3D('',#609,#491,#492);
#393=AXIS2_PLACEMENT_3D('',#610,#493,#494);
#394=AXIS2_PLACEMENT_3D('',#611,#495,#496);
#395=AXIS2_PLACEMENT_3D('',#613,#497,#498);
#396=AXIS2_PLACEMENT_3D('',#614,#499,#500);
#397=AXIS2_PLACEMENT_3D('',#616,#501,#502);
#398=AXIS2_PLACEMENT_3D('',#617,#503,#504);
#399=AXIS2_PLACEMENT_3D('',#619,#505,#506);
#400=AXIS2_PLACEMENT_3D('',#620,#507,#508);
#401=DIRECTION('',(0.,0.,1.));
#402=DIRECTION('',(1.,0.,0.));
#403=DIRECTION('',(0.,0.,1.));
#404=DIRECTION('',(1.,0.,0.));
#405=DIRECTION('',(0.,0.,1.));
#406=DIRECTION('',(1.,0.,0.));
#407=DIRECTION('',(0.,0.,1.));
#408=DIRECTION('',(1.,0.,0.));
#409=DIRECTION('',(0.,0.,1.));
#410=DIRECTION('',(1.,0.,0.));
#411=DIRECTION('',(0.,0.,-1.));
#412=DIRECTION('',(0.,-1.,0.));
#413=DIRECTION('',(0.,0.,-1.));
#414=DIRECTION('',(0.,1.,5.94642859876404E-018));
#415=DIRECTION('',(0.,0.,-1.));
#416=DIRECTION('',(0.,-1.,0.));
#417=DIRECTION('',(0.,0.,-1.));
#418=DIRECTION('',(0.,1.,0.));
#419=DIRECTION('',(0.,0.,-1.));
#420=DIRECTION('',(0.,-1.,0.));
#421=DIRECTION('',(0.,0.,1.));
#422=DIRECTION('',(0.,-1.,0.));
#423=DIRECTION('',(0.,0.,-1.));
#424=DIRECTION('',(0.,1.,0.));
#425=DIRECTION('',(0.,0.,-1.));
#426=DIRECTION('',(1.,0.,0.));
#427=DIRECTION('',(0.,0.,-1.));
#428=DIRECTION('',(0.,1.,1.36056743213867E-017));
#429=DIRECTION('',(0.,0.,1.));
#430=DIRECTION('',(0.,-1.,0.));
#431=DIRECTION('',(0.,0.,1.));
#432=DIRECTION('',(0.,-1.,0.));
#433=DIRECTION('',(0.,0.,-1.));
#434=DIRECTION('',(0.,1.,0.));
#435=DIRECTION('',(0.,0.,-1.));
#436=DIRECTION('',(0.,1.,0.));
#437=DIRECTION('',(0.,0.,-1.));
#438=DIRECTION('',(0.,1.,0.));
#439=DIRECTION('',(0.,0.,1.));
#440=DIRECTION('',(0.,-1.,0.));
#441=DIRECTION('',(0.,0.,-1.));
#442=DIRECTION('',(0.,1.,0.));
#443=DIRECTION('',(0.,0.,1.));
#444=DIRECTION('',(0.,-1.,0.));
#445=DIRECTION('',(0.,0.,1.));
#446=DIRECTION('',(-1.,0.,0.));
#447=DIRECTION('',(0.,0.,1.));
#448=DIRECTION('',(0.,-1.,2.04888599524819E-017));
#449=DIRECTION('',(0.,0.,-1.));
#450=DIRECTION('',(-1.,0.,0.));
#451=DIRECTION('',(0.,0.,-1.));
#452=DIRECTION('',(-1.,0.,0.));
#453=DIRECTION('',(0.,0.,-1.));
#454=DIRECTION('',(-0.999999999999999,0.,0.));
#455=DIRECTION('',(0.,0.,-1.));
#456=DIRECTION('',(0.,1.,0.));
#457=DIRECTION('',(0.,0.,-1.));
#458=DIRECTION('',(0.,1.,0.));
#459=DIRECTION('',(0.,0.,-1.));
#460=DIRECTION('',(0.,1.,0.));
#461=DIRECTION('',(0.,0.,1.));
#462=DIRECTION('',(0.,1.,0.));
#463=DIRECTION('',(0.,0.,1.));
#464=DIRECTION('',(0.,-1.,0.));
#465=DIRECTION('',(0.,0.,-1.));
#466=DIRECTION('',(0.,1.,5.7540124792537E-017));
#467=DIRECTION('',(-1.11022302462516E-015,0.,-1.));
#468=DIRECTION('',(1.,0.,-1.38777878078145E-015));
#469=DIRECTION('',(-1.11022302462516E-015,0.,-1.));
#470=DIRECTION('',(-0.999999999999999,0.,0.));
#471=DIRECTION('',(-1.11022302462516E-015,0.,-1.));
#472=DIRECTION('',(1.,0.,-1.63268091856641E-015));
#473=DIRECTION('',(-1.11022302462516E-015,0.,-1.));
#474=DIRECTION('',(-1.,0.,1.11022302462516E-015));
#475=DIRECTION('',(-1.11022302462516E-015,0.,-1.));
#476=DIRECTION('',(1.,0.,-8.16340459283203E-016));
#477=DIRECTION('',(-1.11022302462516E-015,0.,-1.));
#478=DIRECTION('',(-1.,0.,1.63268091856641E-015));
#479=DIRECTION('',(1.11022302462516E-015,0.,1.));
#480=DIRECTION('',(1.,0.,-1.11022302462516E-015));
#481=DIRECTION('',(0.,1.11022302462516E-015,-1.));
#482=DIRECTION('',(0.,-1.,-1.38777878078145E-015));
#483=DIRECTION('',(0.,1.11022302462516E-015,-1.));
#484=DIRECTION('',(0.,1.,0.));
#485=DIRECTION('',(0.,1.11022302462516E-015,-1.));
#486=DIRECTION('',(0.,-1.,-1.63268091856641E-015));
#487=DIRECTION('',(0.,1.11022302462516E-015,-1.));
#488=DIRECTION('',(0.,1.,1.11022302462516E-015));
#489=DIRECTION('',(0.,1.11022302462516E-015,-1.));
#490=DIRECTION('',(0.,-1.,-8.16340459283203E-016));
#491=DIRECTION('',(0.,1.11022302462516E-015,-1.));
#492=DIRECTION('',(0.,1.,1.63268091856641E-015));
#493=DIRECTION('',(0.,-1.11022302462516E-015,1.));
#494=DIRECTION('',(0.,-1.,-1.11022302462516E-015));
#495=DIRECTION('',(1.11022302462516E-015,0.,-1.));
#496=DIRECTION('',(-1.,0.,-1.38777878078145E-015));
#497=DIRECTION('',(1.11022302462516E-015,0.,-1.));
#498=DIRECTION('',(1.,0.,0.));
#499=DIRECTION('',(1.11022302462516E-015,0.,-1.));
#500=DIRECTION('',(-1.,0.,-1.63268091856641E-015));
#501=DIRECTION('',(1.11022302462516E-015,0.,-1.));
#502=DIRECTION('',(1.,0.,1.11022302462516E-015));
#503=DIRECTION('',(1.11022302462516E-015,0.,-1.));
#504=DIRECTION('',(-1.,0.,-8.16340459283203E-016));
#505=DIRECTION('',(1.11022302462516E-015,0.,-1.));
#506=DIRECTION('',(1.,0.,1.63268091856641E-015));
#507=DIRECTION('',(-1.11022302462516E-015,0.,1.));
#508=DIRECTION('',(-1.,0.,-1.11022302462516E-015));
#509=CARTESIAN_POINT('',(0.,0.,0.));
#510=CARTESIAN_POINT('MCS',(0.,0.,0.));
#511=CARTESIAN_POINT('PCS',(0.,0.,0.));
#512=CARTESIAN_POINT('CSW',(-8.,0.,-22.));
#513=CARTESIAN_POINT('',(0.,0.,0.));
#514=CARTESIAN_POINT('',(0.,0.,0.));
#515=CARTESIAN_POINT('',(-8.,0.,-22.));
#516=CARTESIAN_POINT('',(0.,0.,0.));
#517=CARTESIAN_POINT('',(0.,0.,-11.4559430084392));
#518=CARTESIAN_POINT('',(-14.3611219157077,-14.6824718387695,-11.4559430084394));
#519=CARTESIAN_POINT('',(-14.3611219157231,14.6824718387593,-11.4559430084405));
#520=CARTESIAN_POINT('',(-14.3611219157257,14.682471838762,-11.4559430084419));
#521=CARTESIAN_POINT('',(-14.4715162068089,14.6337618674947,-11.4706178659027));
#522=CARTESIAN_POINT('',(-14.5815250710565,14.5841724720501,-11.4853045313958));
#523=CARTESIAN_POINT('',(-14.6911278838044,14.5337127962051,-11.5));
#524=CARTESIAN_POINT('',(-14.6911278838044,14.5337127962051,-11.5));
#525=CARTESIAN_POINT('',(-14.6911278838044,14.5337127962051,-11.5000000000001));
#526=CARTESIAN_POINT('',(-17.4627347455056,13.2577018955277,-11.8716151127723));
#527=CARTESIAN_POINT('',(-19.8210423736958,11.2000038675356,-12.1600674958816));
#528=CARTESIAN_POINT('',(-23.0972030424159,6.10340804220002,-12.5523989428851));
#529=CARTESIAN_POINT('',(-23.9988595712214,3.03914570558605,-12.6548130458222));
#530=CARTESIAN_POINT('',(-24.0011381713581,-3.0271259340426,-12.6550761102212));
#531=CARTESIAN_POINT('',(-23.1178640075503,-6.06491113120673,-12.5548444745639));
#532=CARTESIAN_POINT('',(-19.8197722833032,-11.2082979239079,-12.1599439195886));
#533=CARTESIAN_POINT('',(-17.46280824036,-13.2576680594751,-11.8716249669111));
#534=CARTESIAN_POINT('',(-14.6911278838044,-14.5337127962051,-11.5000000000001));
#535=CARTESIAN_POINT('',(-14.6911278838044,-14.5337127962051,-11.5));
#536=CARTESIAN_POINT('',(-14.6911278838044,-14.5337127962051,-11.5));
#537=CARTESIAN_POINT('',(-14.5815250710506,-14.5841724720528,-11.485304531395));
#538=CARTESIAN_POINT('',(-14.4715162067971,-14.6337618675,-11.4706178659011));
#539=CARTESIAN_POINT('',(-14.361121915708,-14.6824718387698,-11.4559430084395));
#540=CARTESIAN_POINT('',(0.,0.,-14.733044780348));
#541=CARTESIAN_POINT('',(0.,0.,-10.7));
#542=CARTESIAN_POINT('',(-11.36,-16.460571071503,-10.7));
#543=CARTESIAN_POINT('',(-11.36,16.4605710715029,-10.7));
#544=CARTESIAN_POINT('',(-11.3600000000001,16.4605710715029,-10.7));
#545=CARTESIAN_POINT('',(-11.8568502278703,16.1176778289727,-10.7));
#546=CARTESIAN_POINT('',(-12.315356280908,15.7485476106606,-10.8182403156463));
#547=CARTESIAN_POINT('',(-13.2856739055687,15.1403211228826,-11.1872912115457));
#548=CARTESIAN_POINT('',(-13.8118976514476,14.9248095345775,-11.3829339088503));
#549=CARTESIAN_POINT('',(-14.3611219157257,14.682471838762,-11.4559430084419));
#550=CARTESIAN_POINT('',(-14.361121915708,-14.6824718387698,-11.4559430084395));
#551=CARTESIAN_POINT('',(-13.8124508411515,-14.9245654471852,-11.3830074450789));
#552=CARTESIAN_POINT('',(-13.283652602353,-15.1414030262611,-11.1864660070568));
#553=CARTESIAN_POINT('',(-12.314282980505,-15.7494060969434,-10.817888697785));
#554=CARTESIAN_POINT('',(-11.8585190304462,-16.1165261315511,-10.7));
#555=CARTESIAN_POINT('',(-11.36,-16.460571071503,-10.7));
#556=CARTESIAN_POINT('',(0.,0.,-10.7));
#557=CARTESIAN_POINT('',(0.,0.,-0.674999999999995));
#558=CARTESIAN_POINT('',(0.,-20.,-0.674999999999995));
#559=CARTESIAN_POINT('',(0.,0.,-10.7));
#560=CARTESIAN_POINT('',(0.,0.,-81.0968815076525));
#561=CARTESIAN_POINT('',(0.,0.,-4.33680868994202E-016));
#562=CARTESIAN_POINT('',(19.325,0.,-4.33680868994202E-016));
#563=CARTESIAN_POINT('',(0.,0.,-0.674999999999995));
#564=CARTESIAN_POINT('',(0.,0.,1.89735380184963E-015));
#565=CARTESIAN_POINT('',(0.,-3.,1.89735380184963E-015));
#566=CARTESIAN_POINT('',(-19.,0.,-3.79470760369927E-016));
#567=CARTESIAN_POINT('',(-8.,0.,-10.7));
#568=CARTESIAN_POINT('',(32.,0.,-10.7));
#569=CARTESIAN_POINT('',(-8.,0.,-11.5));
#570=CARTESIAN_POINT('',(-8.,0.,-11.5));
#571=CARTESIAN_POINT('',(-8.,0.,-21.35));
#572=CARTESIAN_POINT('',(-8.,16.,-21.35));
#573=CARTESIAN_POINT('',(-8.,0.,-11.5));
#574=CARTESIAN_POINT('',(-8.,0.,-22.));
#575=CARTESIAN_POINT('',(-23.35,0.,-22.));
#576=CARTESIAN_POINT('',(-8.,0.,-21.35));
#577=CARTESIAN_POINT('',(-0.221825406947974,-7.77817459305203,-22.));
#578=CARTESIAN_POINT('',(-2.72182540694797,-7.77817459305203,-22.));
#579=CARTESIAN_POINT('',(-0.221825406947962,7.77817459305202,-22.));
#580=CARTESIAN_POINT('',(-2.72182540694796,7.77817459305202,-22.));
#581=CARTESIAN_POINT('',(-15.778174593052,7.77817459305205,-22.));
#582=CARTESIAN_POINT('',(-18.278174593052,7.77817459305205,-22.));
#583=CARTESIAN_POINT('',(0.,0.,-22.));
#584=CARTESIAN_POINT('',(0.,0.,3.225));
#585=CARTESIAN_POINT('',(0.,3.,3.225));
#586=CARTESIAN_POINT('',(0.,0.,-3.675));
#587=CARTESIAN_POINT('',(0.,0.,3.825));
#588=CARTESIAN_POINT('',(0.,2.65358983848623,3.825));
#589=CARTESIAN_POINT('',(-3.,0.,3.825));
#590=CARTESIAN_POINT('',(0.,0.,3.225));
#591=CARTESIAN_POINT('',(-15.778174593052,7.77817459305205,-27.325));
#592=CARTESIAN_POINT('',(-13.278174593052,7.77817459305205,-27.325));
#593=CARTESIAN_POINT('',(-15.778174593052,7.77817459305205,-32.325));
#594=CARTESIAN_POINT('',(-15.778174593052,7.77817459305205,-32.325));
#595=CARTESIAN_POINT('',(-11.528174593052,7.77817459305205,-32.325));
#596=CARTESIAN_POINT('',(-15.778174593052,7.77817459305205,-32.325));
#597=CARTESIAN_POINT('',(-15.778174593052,7.77817459305205,-27.325));
#598=CARTESIAN_POINT('',(-11.528174593052,7.77817459305205,-27.325));
#599=CARTESIAN_POINT('',(-15.778174593052,7.77817459305205,-32.325));
#600=CARTESIAN_POINT('',(-20.028174593052,7.77817459305205,-27.325));
#601=CARTESIAN_POINT('',(-0.221825406947962,7.77817459305202,-27.325));
#602=CARTESIAN_POINT('',(-0.221825406947962,5.27817459305202,-27.325));
#603=CARTESIAN_POINT('',(-0.221825406947962,7.77817459305203,-32.325));
#604=CARTESIAN_POINT('',(-0.221825406947962,7.77817459305203,-32.325));
#605=CARTESIAN_POINT('',(-0.221825406947962,3.52817459305203,-32.325));
#606=CARTESIAN_POINT('',(-0.221825406947962,7.77817459305203,-32.325));
#607=CARTESIAN_POINT('',(-0.221825406947962,7.77817459305202,-27.325));
#608=CARTESIAN_POINT('',(-0.221825406947962,3.52817459305202,-27.325));
#609=CARTESIAN_POINT('',(-0.221825406947962,7.77817459305203,-32.325));
#610=CARTESIAN_POINT('',(-0.221825406947962,12.028174593052,-27.325));
#611=CARTESIAN_POINT('',(-0.221825406947968,-7.77817459305203,-27.325));
#612=CARTESIAN_POINT('',(-2.72182540694797,-7.77817459305203,-27.325));
#613=CARTESIAN_POINT('',(-0.221825406947963,-7.77817459305203,-32.325));
#614=CARTESIAN_POINT('',(-0.221825406947963,-7.77817459305203,-32.325));
#615=CARTESIAN_POINT('',(-4.47182540694796,-7.77817459305203,-32.325));
#616=CARTESIAN_POINT('',(-0.221825406947963,-7.77817459305203,-32.325));
#617=CARTESIAN_POINT('',(-0.221825406947968,-7.77817459305203,-27.325));
#618=CARTESIAN_POINT('',(-4.47182540694797,-7.77817459305203,-27.325));
#619=CARTESIAN_POINT('',(-0.221825406947963,-7.77817459305203,-32.325));
#620=CARTESIAN_POINT('',(4.02817459305203,-7.77817459305203,-27.325));
#621=MECHANICAL_DESIGN_GEOMETRIC_PRESENTATION_REPRESENTATION('',(#323,#324,
#325,#326,#327,#328,#329,#330),#622);
#622=(
GEOMETRIC_REPRESENTATION_CONTEXT(3)
GLOBAL_UNCERTAINTY_ASSIGNED_CONTEXT((#623))
GLOBAL_UNIT_ASSIGNED_CONTEXT((#629,#625,#624))
REPRESENTATION_CONTEXT('1529305217708','TOP_LEVEL_ASSEMBLY_PART')
);
#623=UNCERTAINTY_MEASURE_WITH_UNIT(LENGTH_MEASURE(0.0508),#629,
'DISTANCE_ACCURACY_VALUE','Maximum Tolerance applied to model');
#624=(
NAMED_UNIT(*)
SI_UNIT($,.STERADIAN.)
SOLID_ANGLE_UNIT()
);
#625=(
CONVERSION_BASED_UNIT('DEGREE',#627)
NAMED_UNIT(#626)
PLANE_ANGLE_UNIT()
);
#626=DIMENSIONAL_EXPONENTS(0.,0.,0.,0.,0.,0.,0.);
#627=PLANE_ANGLE_MEASURE_WITH_UNIT(PLANE_ANGLE_MEASURE(0.0174532925),#628);
#628=(
NAMED_UNIT(*)
PLANE_ANGLE_UNIT()
SI_UNIT($,.RADIAN.)
);
#629=(
LENGTH_UNIT()
NAMED_UNIT(*)
SI_UNIT(.MILLI.,.METRE.)
);
ENDSEC;
END-ISO-10303-21;
