ISO-10303-21;
HEADER;
/* Generated by software containing ST-Developer
 * from STEP Tools, Inc. (www.steptools.com) 
 */
/* OPTION: using custom schema-name function */

FILE_DESCRIPTION(
/* description */ (''),
/* implementation_level */ '2;1');

FILE_NAME(
/* name */ '7948_1_3d.stp',
/* time_stamp */ '2019-07-12T01:19:27+02:00',
/* author */ (''),
/* organization */ ('SMS'),
/* preprocessor_version */ 'ST-DEVELOPER v16.7',
/* originating_system */ 'SIEMENS PLM Software NX 12.0',
/* authorisation */ '');

FILE_SCHEMA (('AUTOMOTIVE_DESIGN { 1 0 10303 214 3 1 1 1 }'));
ENDSEC;

DATA;
#10=CONSTRUCTIVE_GEOMETRY_REPRESENTATION_RELATIONSHIP(
'supplemental geometry','',#26,#11);
#11=CONSTRUCTIVE_GEOMETRY_REPRESENTATION('supplemental geometry',(#173,
#174,#175),#285);
#12=GEOMETRICALLY_BOUNDED_WIREFRAME_SHAPE_REPRESENTATION(
'7948_1_3D-None',(#27),#285);
#13=SHAPE_REPRESENTATION_RELATIONSHIP('None',
'relationship between 7948_1_3D-None and 7948_1_3D-None',#26,#15);
#14=SHAPE_REPRESENTATION_RELATIONSHIP('None',
'relationship between 7948_1_3D-None and 7948_1_3D-None',#26,#12);
#15=ADVANCED_BREP_SHAPE_REPRESENTATION('7948_1_3D-None',(#41,#42),#285);
#16=SHAPE_DEFINITION_REPRESENTATION(#17,#26);
#17=PRODUCT_DEFINITION_SHAPE('','',#18);
#18=PRODUCT_DEFINITION(' ','',#20,#19);
#19=PRODUCT_DEFINITION_CONTEXT('part definition',#25,'design');
#20=PRODUCT_DEFINITION_FORMATION_WITH_SPECIFIED_SOURCE(' ',' ',#22,
 .NOT_KNOWN.);
#21=PRODUCT_RELATED_PRODUCT_CATEGORY('part','',(#22));
#22=PRODUCT('7948_1_3D','7948_1_3D',' ',(#23));
#23=PRODUCT_CONTEXT(' ',#25,'mechanical');
#24=APPLICATION_PROTOCOL_DEFINITION('international standard',
'automotive_design',2010,#25);
#25=APPLICATION_CONTEXT(
'core data for automotive mechanical design processes');
#26=SHAPE_REPRESENTATION('7948_1_3D-None',(#172),#285);
#27=GEOMETRIC_CURVE_SET('None',(#239,#240,#147));
#28=VERTEX_LOOP('',#122);
#29=SURFACE_STYLE_USAGE(.BOTH.,#31);
#30=SURFACE_STYLE_USAGE(.BOTH.,#32);
#31=SURFACE_SIDE_STYLE('',(#33));
#32=SURFACE_SIDE_STYLE('',(#34));
#33=SURFACE_STYLE_FILL_AREA(#35);
#34=SURFACE_STYLE_FILL_AREA(#36);
#35=FILL_AREA_STYLE('',(#37));
#36=FILL_AREA_STYLE('',(#38));
#37=FILL_AREA_STYLE_COLOUR('',#39);
#38=FILL_AREA_STYLE_COLOUR('',#40);
#39=COLOUR_RGB('TLS_NOCUT',0.499992370489052,0.499992370489052,0.499992370489052);
#40=COLOUR_RGB('TLS_CUT',0.8,0.8,0.8);
#41=MANIFOLD_SOLID_BREP('NOCUT',#43);
#42=MANIFOLD_SOLID_BREP('CUT',#44);
#43=CLOSED_SHELL('',(#54,#55,#56,#57,#58,#59,#60));
#44=CLOSED_SHELL('',(#61,#62,#63));
#45=CYLINDRICAL_SURFACE('',#187,6.);
#46=PLANE('',#184);
#47=PLANE('',#188);
#48=PLANE('',#190);
#49=FACE_OUTER_BOUND('',#88,.T.);
#50=FACE_OUTER_BOUND('',#93,.T.);
#51=FACE_OUTER_BOUND('',#94,.T.);
#52=TOROIDAL_SURFACE('',#181,5.2,0.799999999999999);
#53=TOROIDAL_SURFACE('',#182,5.91622511976547,0.800000000000006);
#54=ADVANCED_FACE('',(#68,#69),#64,.T.);
#55=ADVANCED_FACE('',(#70,#71),#52,.T.);
#56=ADVANCED_FACE('',(#72,#73),#53,.F.);
#57=ADVANCED_FACE('',(#49),#46,.T.);
#58=ADVANCED_FACE('',(#74,#75),#65,.T.);
#59=ADVANCED_FACE('SHANK',(#76,#77),#45,.T.);
#60=ADVANCED_FACE('',(#50),#47,.T.);
#61=ADVANCED_FACE('',(#51),#48,.F.);
#62=ADVANCED_FACE('',(#78,#79),#66,.T.);
#63=ADVANCED_FACE('',(#80,#81),#67,.T.);
#64=CONICAL_SURFACE('',#178,5.16249999999845,0.0358098575284859);
#65=CONICAL_SURFACE('',#186,6.,60.);
#66=CONICAL_SURFACE('',#192,5.16249999999845,0.0358098575284859);
#67=CONICAL_SURFACE('',#193,3.73034936274053E-14,73.4621588072642);
#68=FACE_BOUND('',#82,.T.);
#69=FACE_BOUND('',#83,.T.);
#70=FACE_BOUND('',#84,.T.);
#71=FACE_BOUND('',#85,.T.);
#72=FACE_BOUND('',#86,.T.);
#73=FACE_BOUND('',#87,.T.);
#74=FACE_BOUND('',#89,.T.);
#75=FACE_BOUND('',#90,.T.);
#76=FACE_BOUND('',#91,.T.);
#77=FACE_BOUND('',#92,.T.);
#78=FACE_BOUND('',#95,.T.);
#79=FACE_BOUND('',#96,.T.);
#80=FACE_BOUND('',#28,.T.);
#81=FACE_BOUND('',#97,.T.);
#82=EDGE_LOOP('',(#98));
#83=EDGE_LOOP('',(#99));
#84=EDGE_LOOP('',(#100));
#85=EDGE_LOOP('',(#101));
#86=EDGE_LOOP('',(#102));
#87=EDGE_LOOP('',(#103));
#88=EDGE_LOOP('',(#104));
#89=EDGE_LOOP('',(#105));
#90=EDGE_LOOP('',(#106));
#91=EDGE_LOOP('',(#107));
#92=EDGE_LOOP('',(#108));
#93=EDGE_LOOP('',(#109));
#94=EDGE_LOOP('',(#110));
#95=EDGE_LOOP('',(#111));
#96=EDGE_LOOP('',(#112));
#97=EDGE_LOOP('',(#113));
#98=ORIENTED_EDGE('',*,*,#123,.T.);
#99=ORIENTED_EDGE('',*,*,#124,.F.);
#100=ORIENTED_EDGE('',*,*,#125,.T.);
#101=ORIENTED_EDGE('',*,*,#126,.F.);
#102=ORIENTED_EDGE('',*,*,#126,.T.);
#103=ORIENTED_EDGE('',*,*,#123,.F.);
#104=ORIENTED_EDGE('',*,*,#127,.F.);
#105=ORIENTED_EDGE('',*,*,#127,.T.);
#106=ORIENTED_EDGE('',*,*,#128,.F.);
#107=ORIENTED_EDGE('',*,*,#128,.T.);
#108=ORIENTED_EDGE('',*,*,#125,.F.);
#109=ORIENTED_EDGE('',*,*,#124,.T.);
#110=ORIENTED_EDGE('',*,*,#129,.F.);
#111=ORIENTED_EDGE('',*,*,#129,.T.);
#112=ORIENTED_EDGE('',*,*,#130,.F.);
#113=ORIENTED_EDGE('',*,*,#130,.T.);
#114=VERTEX_POINT('',#258);
#115=VERTEX_POINT('',#260);
#116=VERTEX_POINT('',#263);
#117=VERTEX_POINT('',#265);
#118=VERTEX_POINT('',#269);
#119=VERTEX_POINT('',#272);
#120=VERTEX_POINT('',#277);
#121=VERTEX_POINT('',#280);
#122=VERTEX_POINT('',#282);
#123=EDGE_CURVE('',#114,#114,#131,.T.);
#124=EDGE_CURVE('',#115,#115,#132,.T.);
#125=EDGE_CURVE('',#116,#116,#133,.T.);
#126=EDGE_CURVE('',#117,#117,#134,.T.);
#127=EDGE_CURVE('',#118,#118,#135,.T.);
#128=EDGE_CURVE('',#119,#119,#136,.T.);
#129=EDGE_CURVE('',#120,#120,#137,.T.);
#130=EDGE_CURVE('',#121,#121,#138,.T.);
#131=CIRCLE('',#176,5.11622527601542);
#132=CIRCLE('',#177,5.1306870000024);
#133=CIRCLE('',#179,6.);
#134=CIRCLE('',#180,5.55811255979089);
#135=CIRCLE('',#183,3.5);
#136=CIRCLE('',#185,6.);
#137=CIRCLE('',#189,5.1306870000024);
#138=CIRCLE('',#191,5.15);
#139=CURVE_STYLE('',#143,POSITIVE_LENGTH_MEASURE(0.18),#169);
#140=CURVE_STYLE('',#144,POSITIVE_LENGTH_MEASURE(0.13),#171);
#141=CURVE_STYLE('',#145,POSITIVE_LENGTH_MEASURE(0.13),#171);
#142=CURVE_STYLE('',#146,POSITIVE_LENGTH_MEASURE(0.13),#171);
#143=DRAUGHTING_PRE_DEFINED_CURVE_FONT('continuous');
#144=DRAUGHTING_PRE_DEFINED_CURVE_FONT('continuous');
#145=DRAUGHTING_PRE_DEFINED_CURVE_FONT('continuous');
#146=DRAUGHTING_PRE_DEFINED_CURVE_FONT('continuous');
#147=B_SPLINE_CURVE_WITH_KNOTS('CUTTING PART LINE',3,(#241,#242,#243,#244,
#245,#246,#247,#248,#249,#250,#251,#252,#253),.UNSPECIFIED.,.T.,.F.,(4,
3,3,3,4),(0.,0.439230133364245,0.508719875432123,0.927238689985067,1.),
 .UNSPECIFIED.);
#148=PRESENTATION_LAYER_ASSIGNMENT('1','Layer 1',(#239,#240,#147,#173,#174,
#175,#41,#42));
#149=STYLED_ITEM('',(#157),#239);
#150=STYLED_ITEM('',(#158),#240);
#151=STYLED_ITEM('',(#159),#147);
#152=STYLED_ITEM('',(#160),#173);
#153=STYLED_ITEM('',(#161),#174);
#154=STYLED_ITEM('',(#162),#175);
#155=STYLED_ITEM('',(#163),#41);
#156=STYLED_ITEM('',(#164),#42);
#157=PRESENTATION_STYLE_ASSIGNMENT((#165));
#158=PRESENTATION_STYLE_ASSIGNMENT((#166));
#159=PRESENTATION_STYLE_ASSIGNMENT((#139));
#160=PRESENTATION_STYLE_ASSIGNMENT((#140));
#161=PRESENTATION_STYLE_ASSIGNMENT((#141));
#162=PRESENTATION_STYLE_ASSIGNMENT((#142));
#163=PRESENTATION_STYLE_ASSIGNMENT((#29));
#164=PRESENTATION_STYLE_ASSIGNMENT((#30));
#165=POINT_STYLE('',#167,POSITIVE_LENGTH_MEASURE(3.),#169);
#166=POINT_STYLE('',#168,POSITIVE_LENGTH_MEASURE(3.),#170);
#167=PRE_DEFINED_POINT_MARKER_SYMBOL('plus');
#168=PRE_DEFINED_POINT_MARKER_SYMBOL('plus');
#169=DRAUGHTING_PRE_DEFINED_COLOUR('blue');
#170=DRAUGHTING_PRE_DEFINED_COLOUR('white');
#171=DRAUGHTING_PRE_DEFINED_COLOUR('green');
#172=AXIS2_PLACEMENT_3D('',#238,#194,#195);
#173=AXIS2_PLACEMENT_3D('PCS',#254,#196,#197);
#174=AXIS2_PLACEMENT_3D('MCS',#255,#198,#199);
#175=AXIS2_PLACEMENT_3D('CIP',#256,#200,#201);
#176=AXIS2_PLACEMENT_3D('',#257,#202,#203);
#177=AXIS2_PLACEMENT_3D('',#259,#204,#205);
#178=AXIS2_PLACEMENT_3D('',#261,#206,#207);
#179=AXIS2_PLACEMENT_3D('',#262,#208,#209);
#180=AXIS2_PLACEMENT_3D('',#264,#210,#211);
#181=AXIS2_PLACEMENT_3D('',#266,#212,#213);
#182=AXIS2_PLACEMENT_3D('',#267,#214,#215);
#183=AXIS2_PLACEMENT_3D('',#268,#216,#217);
#184=AXIS2_PLACEMENT_3D('',#270,#218,#219);
#185=AXIS2_PLACEMENT_3D('',#271,#220,#221);
#186=AXIS2_PLACEMENT_3D('',#273,#222,#223);
#187=AXIS2_PLACEMENT_3D('',#274,#224,#225);
#188=AXIS2_PLACEMENT_3D('',#275,#226,#227);
#189=AXIS2_PLACEMENT_3D('',#276,#228,#229);
#190=AXIS2_PLACEMENT_3D('',#278,#230,#231);
#191=AXIS2_PLACEMENT_3D('',#279,#232,#233);
#192=AXIS2_PLACEMENT_3D('',#281,#234,#235);
#193=AXIS2_PLACEMENT_3D('',#283,#236,#237);
#194=DIRECTION('',(0.,0.,1.));
#195=DIRECTION('',(1.,0.,0.));
#196=DIRECTION('',(0.,0.,1.));
#197=DIRECTION('',(1.,0.,0.));
#198=DIRECTION('',(0.,0.,1.));
#199=DIRECTION('',(1.,0.,0.));
#200=DIRECTION('',(0.,0.,1.));
#201=DIRECTION('',(1.,0.,0.));
#202=DIRECTION('',(0.,0.,-1.));
#203=DIRECTION('',(1.,0.,0.));
#204=DIRECTION('',(0.,0.,-1.));
#205=DIRECTION('',(1.,0.,0.));
#206=DIRECTION('',(0.,0.,-1.));
#207=DIRECTION('',(1.,0.,-1.4387339412186E-14));
#208=DIRECTION('',(0.,0.,-1.));
#209=DIRECTION('',(1.,0.,0.));
#210=DIRECTION('',(0.,0.,-1.));
#211=DIRECTION('',(1.,0.,0.));
#212=DIRECTION('',(0.,0.,-1.));
#213=DIRECTION('',(1.,0.,0.));
#214=DIRECTION('',(0.,0.,-1.));
#215=DIRECTION('',(1.,0.,0.));
#216=DIRECTION('',(0.,0.,-1.));
#217=DIRECTION('',(1.,0.,0.));
#218=DIRECTION('',(0.,0.,1.));
#219=DIRECTION('',(-1.,0.,0.));
#220=DIRECTION('',(0.,0.,-1.));
#221=DIRECTION('',(1.,0.,0.));
#222=DIRECTION('',(0.,0.,-1.));
#223=DIRECTION('',(1.,0.,-4.69100230072986E-17));
#224=DIRECTION('',(0.,0.,-1.));
#225=DIRECTION('',(1.,0.,0.));
#226=DIRECTION('',(0.,0.,-1.));
#227=DIRECTION('',(1.,0.,0.));
#228=DIRECTION('',(0.,0.,-1.));
#229=DIRECTION('',(1.,0.,0.));
#230=DIRECTION('',(0.,0.,-1.));
#231=DIRECTION('',(1.,0.,0.));
#232=DIRECTION('',(0.,0.,-1.));
#233=DIRECTION('',(-1.,0.,0.));
#234=DIRECTION('',(0.,0.,-1.));
#235=DIRECTION('',(1.,0.,-1.4387339412186E-14));
#236=DIRECTION('',(0.,0.,1.));
#237=DIRECTION('',(-1.,0.,1.23622794848795E-17));
#238=CARTESIAN_POINT('',(0.,0.,0.));
#239=CARTESIAN_POINT('CRP',(5.15,0.,-100.4708));
#240=CARTESIAN_POINT('',(0.,0.,-102.));
#241=CARTESIAN_POINT('',(0.,0.,-102.));
#242=CARTESIAN_POINT('',(0.,0.,-91.1900000000002));
#243=CARTESIAN_POINT('',(0.,0.,-80.3800000000004));
#244=CARTESIAN_POINT('',(0.,0.,-69.5700000000006));
#245=CARTESIAN_POINT('',(1.7102290000008,0.,-69.57));
#246=CARTESIAN_POINT('',(3.4204580000016,0.,-69.57));
#247=CARTESIAN_POINT('',(5.1306870000024,0.,-69.57));
#248=CARTESIAN_POINT('',(5.13712466666827,0.,-79.8702666666665));
#249=CARTESIAN_POINT('',(5.14356233333414,0.,-90.1705333333324));
#250=CARTESIAN_POINT('',(5.15,0.,-100.470799999998));
#251=CARTESIAN_POINT('',(3.43333333333322,0.,-100.980533333333));
#252=CARTESIAN_POINT('',(1.71666666666661,0.,-101.490266666667));
#253=CARTESIAN_POINT('',(0.,0.,-102.));
#254=CARTESIAN_POINT('',(0.,0.,0.));
#255=CARTESIAN_POINT('',(0.,0.,-45.));
#256=CARTESIAN_POINT('',(0.,0.,-102.));
#257=CARTESIAN_POINT('',(0.,0.,-46.4312416180211));
#258=CARTESIAN_POINT('',(5.11622527601542,0.,-46.4312416180211));
#259=CARTESIAN_POINT('',(0.,0.,-69.57));
#260=CARTESIAN_POINT('',(5.1306870000024,0.,-69.57));
#261=CARTESIAN_POINT('',(0.,0.,-120.4708));
#262=CARTESIAN_POINT('',(0.,0.,-45.));
#263=CARTESIAN_POINT('',(6.,0.,-45.));
#264=CARTESIAN_POINT('',(0.,0.,-45.7153708091053));
#265=CARTESIAN_POINT('',(5.55811255979089,0.,-45.7153708091053));
#266=CARTESIAN_POINT('',(0.,0.,-45.));
#267=CARTESIAN_POINT('',(0.,0.,-46.4307416181187));
#268=CARTESIAN_POINT('',(0.,0.,0.));
#269=CARTESIAN_POINT('',(3.5,0.,0.));
#270=CARTESIAN_POINT('',(3.5,0.,1.11022302462516E-16));
#271=CARTESIAN_POINT('',(0.,0.,-1.44337567297406));
#272=CARTESIAN_POINT('',(6.,0.,-1.44337567297406));
#273=CARTESIAN_POINT('',(0.,0.,-1.44337567297406));
#274=CARTESIAN_POINT('',(0.,0.,15.2045468976791));
#275=CARTESIAN_POINT('',(0.,0.,-69.57));
#276=CARTESIAN_POINT('',(0.,0.,-69.57));
#277=CARTESIAN_POINT('',(5.1306870000024,0.,-69.57));
#278=CARTESIAN_POINT('',(0.,0.,-69.57));
#279=CARTESIAN_POINT('',(0.,0.,-100.4708));
#280=CARTESIAN_POINT('',(-5.15,0.,-100.4708));
#281=CARTESIAN_POINT('',(0.,0.,-120.4708));
#282=CARTESIAN_POINT('',(3.73034936274053E-14,0.,-102.));
#283=CARTESIAN_POINT('',(0.,0.,-102.));
#284=MECHANICAL_DESIGN_GEOMETRIC_PRESENTATION_REPRESENTATION('',(#149,#150,
#151,#152,#153,#154,#155,#156),#285);
#285=(
GEOMETRIC_REPRESENTATION_CONTEXT(3)
GLOBAL_UNCERTAINTY_ASSIGNED_CONTEXT((#286))
GLOBAL_UNIT_ASSIGNED_CONTEXT((#292,#288,#287))
REPRESENTATION_CONTEXT('7948_1_3d','TOP_LEVEL_ASSEMBLY_PART')
);
#286=UNCERTAINTY_MEASURE_WITH_UNIT(LENGTH_MEASURE(2.E-5),#292,
'DISTANCE_ACCURACY_VALUE','Maximum Tolerance applied to model');
#287=(
NAMED_UNIT(*)
SI_UNIT($,.STERADIAN.)
SOLID_ANGLE_UNIT()
);
#288=(
CONVERSION_BASED_UNIT('DEGREE',#290)
NAMED_UNIT(#289)
PLANE_ANGLE_UNIT()
);
#289=DIMENSIONAL_EXPONENTS(0.,0.,0.,0.,0.,0.,0.);
#290=PLANE_ANGLE_MEASURE_WITH_UNIT(PLANE_ANGLE_MEASURE(0.0174532925),#291);
#291=(
NAMED_UNIT(*)
PLANE_ANGLE_UNIT()
SI_UNIT($,.RADIAN.)
);
#292=(
LENGTH_UNIT()
NAMED_UNIT(*)
SI_UNIT(.MILLI.,.METRE.)
);
ENDSEC;
END-ISO-10303-21;
