ISO-10303-21;
HEADER;
/* Generated by software containing ST-Developer
 * from STEP Tools, Inc. (www.steptools.com) 
 */
/* OPTION: using custom schema-name function */

FILE_DESCRIPTION(
/* description */ (''),
/* implementation_level */ '2;1');

FILE_NAME(
/* name */ '1504190577220.stp',
/* time_stamp */ '2017-08-31T16:43:04+02:00',
/* author */ (''),
/* organization */ ('SMS'),
/* preprocessor_version */ 'ST-DEVELOPER v15',
/* originating_system */ 'SIEMENS PLM Software NX 8.5',
/* authorisation */ '');

FILE_SCHEMA (('AUTOMOTIVE_DESIGN { 1 0 10303 214 3 1 1 1 }'));
ENDSEC;

DATA;
#10=CONSTRUCTIVE_GEOMETRY_REPRESENTATION_RELATIONSHIP(
'supplemental geometry','',#24,#11);
#11=CONSTRUCTIVE_GEOMETRY_REPRESENTATION('supplemental geometry',(#162,
#163,#164),#272);
#12=SHAPE_REPRESENTATION_RELATIONSHIP('None',
'relationship between 393.14-25D160X120-None and 393.14-25D160X120-Non
e',#24,#13);
#13=ADVANCED_BREP_SHAPE_REPRESENTATION('393.14-25D160X120-None',(#30),#272);
#14=SHAPE_DEFINITION_REPRESENTATION(#15,#24);
#15=PRODUCT_DEFINITION_SHAPE('','',#16);
#16=PRODUCT_DEFINITION(' ','',#18,#17);
#17=PRODUCT_DEFINITION_CONTEXT('part definition',#23,'design');
#18=PRODUCT_DEFINITION_FORMATION_WITH_SPECIFIED_SOURCE(' ',' ',#20,
 .NOT_KNOWN.);
#19=PRODUCT_RELATED_PRODUCT_CATEGORY('part','',(#20));
#20=PRODUCT('393.14-25D160X120','393.14-25D160X120',' ',(#21));
#21=PRODUCT_CONTEXT(' ',#23,'mechanical');
#22=APPLICATION_PROTOCOL_DEFINITION('international standard',
'automotive_design',2010,#23);
#23=APPLICATION_CONTEXT(
'core data for automotive mechanical design processes');
#24=SHAPE_REPRESENTATION('393.14-25D160X120-None',(#161),#272);
#25=SURFACE_STYLE_USAGE(.BOTH.,#26);
#26=SURFACE_SIDE_STYLE('',(#27));
#27=SURFACE_STYLE_FILL_AREA(#28);
#28=FILL_AREA_STYLE('',(#29));
#29=FILL_AREA_STYLE_COLOUR('',#157);
#30=MANIFOLD_SOLID_BREP('NOCUT',#31);
#31=CLOSED_SHELL('',(#57,#58,#59,#60,#61,#62,#63,#64,#65,#66,#67));
#32=TOROIDAL_SURFACE('',#182,12.7,0.200000000000001);
#33=CYLINDRICAL_SURFACE('',#176,10.998423);
#34=CONICAL_SURFACE('',#168,8.47443900000002,44.9999999999999);
#35=CONICAL_SURFACE('',#170,8.82350500000001,8.20128248464818);
#36=CONICAL_SURFACE('',#172,12.46418,44.9999999999961);
#37=CONICAL_SURFACE('',#180,12.71188,30.0000085709419);
#38=CONICAL_SURFACE('',#184,12.8732050807569,30.0000018985994);
#39=FACE_BOUND('',#75,.T.);
#40=FACE_BOUND('',#76,.T.);
#41=FACE_BOUND('',#77,.T.);
#42=FACE_BOUND('',#78,.T.);
#43=FACE_BOUND('',#79,.T.);
#44=FACE_BOUND('',#80,.T.);
#45=FACE_BOUND('',#81,.T.);
#46=FACE_BOUND('',#82,.T.);
#47=FACE_BOUND('',#83,.T.);
#48=FACE_BOUND('',#84,.T.);
#49=FACE_BOUND('',#85,.T.);
#50=FACE_BOUND('',#86,.T.);
#51=FACE_BOUND('',#87,.T.);
#52=FACE_BOUND('',#88,.T.);
#53=FACE_BOUND('',#89,.T.);
#54=FACE_BOUND('',#90,.T.);
#55=FACE_BOUND('',#91,.T.);
#56=FACE_BOUND('',#92,.T.);
#57=ADVANCED_FACE('',(#72),#68,.F.);
#58=ADVANCED_FACE('',(#39,#40),#34,.T.);
#59=ADVANCED_FACE('',(#41,#42),#35,.T.);
#60=ADVANCED_FACE('',(#43,#44),#36,.T.);
#61=ADVANCED_FACE('',(#45,#46),#69,.F.);
#62=ADVANCED_FACE('',(#47,#48),#33,.T.);
#63=ADVANCED_FACE('',(#49,#50),#70,.F.);
#64=ADVANCED_FACE('',(#51,#52),#37,.T.);
#65=ADVANCED_FACE('',(#53,#54),#32,.T.);
#66=ADVANCED_FACE('',(#55,#56),#38,.T.);
#67=ADVANCED_FACE('',(#73),#71,.F.);
#68=PLANE('',#166);
#69=PLANE('',#174);
#70=PLANE('',#178);
#71=PLANE('',#185);
#72=FACE_OUTER_BOUND('',#74,.T.);
#73=FACE_OUTER_BOUND('',#93,.T.);
#74=EDGE_LOOP('',(#94));
#75=EDGE_LOOP('',(#95));
#76=EDGE_LOOP('',(#96));
#77=EDGE_LOOP('',(#97));
#78=EDGE_LOOP('',(#98));
#79=EDGE_LOOP('',(#99));
#80=EDGE_LOOP('',(#100));
#81=EDGE_LOOP('',(#101));
#82=EDGE_LOOP('',(#102));
#83=EDGE_LOOP('',(#103));
#84=EDGE_LOOP('',(#104));
#85=EDGE_LOOP('',(#105));
#86=EDGE_LOOP('',(#106));
#87=EDGE_LOOP('',(#107));
#88=EDGE_LOOP('',(#108));
#89=EDGE_LOOP('',(#109));
#90=EDGE_LOOP('',(#110));
#91=EDGE_LOOP('',(#111));
#92=EDGE_LOOP('',(#112));
#93=EDGE_LOOP('',(#113));
#94=ORIENTED_EDGE('',*,*,#124,.F.);
#95=ORIENTED_EDGE('',*,*,#125,.F.);
#96=ORIENTED_EDGE('',*,*,#124,.T.);
#97=ORIENTED_EDGE('',*,*,#126,.F.);
#98=ORIENTED_EDGE('',*,*,#125,.T.);
#99=ORIENTED_EDGE('',*,*,#127,.F.);
#100=ORIENTED_EDGE('',*,*,#126,.T.);
#101=ORIENTED_EDGE('',*,*,#128,.F.);
#102=ORIENTED_EDGE('',*,*,#127,.T.);
#103=ORIENTED_EDGE('',*,*,#129,.F.);
#104=ORIENTED_EDGE('',*,*,#128,.T.);
#105=ORIENTED_EDGE('',*,*,#130,.F.);
#106=ORIENTED_EDGE('',*,*,#129,.T.);
#107=ORIENTED_EDGE('',*,*,#131,.F.);
#108=ORIENTED_EDGE('',*,*,#130,.T.);
#109=ORIENTED_EDGE('',*,*,#132,.F.);
#110=ORIENTED_EDGE('',*,*,#131,.T.);
#111=ORIENTED_EDGE('',*,*,#133,.F.);
#112=ORIENTED_EDGE('',*,*,#132,.T.);
#113=ORIENTED_EDGE('',*,*,#133,.T.);
#114=VERTEX_POINT('',#241);
#115=VERTEX_POINT('',#244);
#116=VERTEX_POINT('',#247);
#117=VERTEX_POINT('',#250);
#118=VERTEX_POINT('',#253);
#119=VERTEX_POINT('',#256);
#120=VERTEX_POINT('',#259);
#121=VERTEX_POINT('',#262);
#122=VERTEX_POINT('',#265);
#123=VERTEX_POINT('',#268);
#124=EDGE_CURVE('',#114,#114,#134,.T.);
#125=EDGE_CURVE('',#115,#115,#135,.T.);
#126=EDGE_CURVE('',#116,#116,#136,.T.);
#127=EDGE_CURVE('',#117,#117,#137,.T.);
#128=EDGE_CURVE('',#118,#118,#138,.T.);
#129=EDGE_CURVE('',#119,#119,#139,.T.);
#130=EDGE_CURVE('',#120,#120,#140,.T.);
#131=EDGE_CURVE('',#121,#121,#141,.T.);
#132=EDGE_CURVE('',#122,#122,#142,.T.);
#133=EDGE_CURVE('',#123,#123,#143,.T.);
#134=CIRCLE('',#165,8.47443900000002);
#135=CIRCLE('',#167,8.82350500000001);
#136=CIRCLE('',#169,12.46418);
#137=CIRCLE('',#171,12.173775);
#138=CIRCLE('',#173,10.998423);
#139=CIRCLE('',#175,10.998423);
#140=CIRCLE('',#177,12.71188);
#141=CIRCLE('',#179,12.873205);
#142=CIRCLE('',#181,12.8732050807569);
#143=CIRCLE('',#183,10.264659);
#144=PRESENTATION_LAYER_ASSIGNMENT('1','Layer 1',(#162,#163,#164,#30));
#145=STYLED_ITEM('',(#149),#162);
#146=STYLED_ITEM('',(#150),#163);
#147=STYLED_ITEM('',(#151),#164);
#148=STYLED_ITEM('',(#152),#30);
#149=PRESENTATION_STYLE_ASSIGNMENT((#153));
#150=PRESENTATION_STYLE_ASSIGNMENT((#154));
#151=PRESENTATION_STYLE_ASSIGNMENT((#155));
#152=PRESENTATION_STYLE_ASSIGNMENT((#25));
#153=CURVE_STYLE('',#158,POSITIVE_LENGTH_MEASURE(0.13),#156);
#154=CURVE_STYLE('',#159,POSITIVE_LENGTH_MEASURE(0.13),#156);
#155=CURVE_STYLE('',#160,POSITIVE_LENGTH_MEASURE(0.13),#156);
#156=COLOUR_RGB('Strong Stone',0.576470588235294,0.54508278019379,0.392156862745098);
#157=COLOUR_RGB('TLS_NOCUT',0.499992370489052,0.499992370489052,0.499992370489052);
#158=DRAUGHTING_PRE_DEFINED_CURVE_FONT('continuous');
#159=DRAUGHTING_PRE_DEFINED_CURVE_FONT('continuous');
#160=DRAUGHTING_PRE_DEFINED_CURVE_FONT('continuous');
#161=AXIS2_PLACEMENT_3D('',#236,#186,#187);
#162=AXIS2_PLACEMENT_3D('CSW',#237,#188,#189);
#163=AXIS2_PLACEMENT_3D('PCS',#238,#190,#191);
#164=AXIS2_PLACEMENT_3D('MCS',#239,#192,#193);
#165=AXIS2_PLACEMENT_3D('',#240,#194,#195);
#166=AXIS2_PLACEMENT_3D('',#242,#196,#197);
#167=AXIS2_PLACEMENT_3D('',#243,#198,#199);
#168=AXIS2_PLACEMENT_3D('',#245,#200,#201);
#169=AXIS2_PLACEMENT_3D('',#246,#202,#203);
#170=AXIS2_PLACEMENT_3D('',#248,#204,#205);
#171=AXIS2_PLACEMENT_3D('',#249,#206,#207);
#172=AXIS2_PLACEMENT_3D('',#251,#208,#209);
#173=AXIS2_PLACEMENT_3D('',#252,#210,#211);
#174=AXIS2_PLACEMENT_3D('',#254,#212,#213);
#175=AXIS2_PLACEMENT_3D('',#255,#214,#215);
#176=AXIS2_PLACEMENT_3D('',#257,#216,#217);
#177=AXIS2_PLACEMENT_3D('',#258,#218,#219);
#178=AXIS2_PLACEMENT_3D('',#260,#220,#221);
#179=AXIS2_PLACEMENT_3D('',#261,#222,#223);
#180=AXIS2_PLACEMENT_3D('',#263,#224,#225);
#181=AXIS2_PLACEMENT_3D('',#264,#226,#227);
#182=AXIS2_PLACEMENT_3D('',#266,#228,#229);
#183=AXIS2_PLACEMENT_3D('',#267,#230,#231);
#184=AXIS2_PLACEMENT_3D('',#269,#232,#233);
#185=AXIS2_PLACEMENT_3D('',#270,#234,#235);
#186=DIRECTION('',(0.,0.,1.));
#187=DIRECTION('',(1.,0.,0.));
#188=DIRECTION('',(0.,0.,1.));
#189=DIRECTION('',(1.,0.,0.));
#190=DIRECTION('',(0.,0.,1.));
#191=DIRECTION('',(1.,0.,0.));
#192=DIRECTION('',(0.,0.,1.));
#193=DIRECTION('',(1.,0.,0.));
#194=DIRECTION('',(0.,0.,-1.));
#195=DIRECTION('',(-1.,0.,0.));
#196=DIRECTION('',(0.,0.,-1.));
#197=DIRECTION('',(1.,0.,0.));
#198=DIRECTION('',(0.,0.,-1.));
#199=DIRECTION('',(-1.,0.,0.));
#200=DIRECTION('',(0.,0.,-1.));
#201=DIRECTION('',(1.,0.,4.81640936536923E-017));
#202=DIRECTION('',(0.,0.,-1.));
#203=DIRECTION('',(-1.,0.,0.));
#204=DIRECTION('',(0.,0.,-1.));
#205=DIRECTION('',(1.,0.,-9.0735004500816E-017));
#206=DIRECTION('',(0.,0.,-1.));
#207=DIRECTION('',(-1.,0.,0.));
#208=DIRECTION('',(0.,0.,1.));
#209=DIRECTION('',(-1.,0.,7.36748133321741E-017));
#210=DIRECTION('',(0.,0.,-1.));
#211=DIRECTION('',(-1.,0.,0.));
#212=DIRECTION('',(0.,0.,1.));
#213=DIRECTION('',(-1.,0.,0.));
#214=DIRECTION('',(0.,0.,-1.));
#215=DIRECTION('',(-1.,0.,0.));
#216=DIRECTION('',(0.,0.,-1.));
#217=DIRECTION('',(1.,0.,0.));
#218=DIRECTION('',(0.,0.,-1.));
#219=DIRECTION('',(-1.,0.,0.));
#220=DIRECTION('',(0.,0.,-1.));
#221=DIRECTION('',(1.,0.,0.));
#222=DIRECTION('',(0.,0.,-1.));
#223=DIRECTION('',(-1.,0.,0.));
#224=DIRECTION('',(0.,0.,-1.));
#225=DIRECTION('',(1.,0.,5.73280228085301E-017));
#226=DIRECTION('',(0.,0.,-1.));
#227=DIRECTION('',(-1.,0.,0.));
#228=DIRECTION('',(0.,0.,-1.));
#229=DIRECTION('',(1.,0.,0.));
#230=DIRECTION('',(0.,0.,-1.));
#231=DIRECTION('',(-1.,0.,0.));
#232=DIRECTION('',(0.,0.,1.));
#233=DIRECTION('',(-1.,0.,-3.37996019305162E-017));
#234=DIRECTION('',(0.,0.,1.));
#235=DIRECTION('',(-1.,0.,0.));
#236=CARTESIAN_POINT('',(0.,0.,0.));
#237=CARTESIAN_POINT('',(0.,0.,-8.10000000000002));
#238=CARTESIAN_POINT('',(0.,0.,0.));
#239=CARTESIAN_POINT('',(0.,0.,0.));
#240=CARTESIAN_POINT('',(0.,0.,25.9));
#241=CARTESIAN_POINT('',(-8.47443900000002,0.,25.9));
#242=CARTESIAN_POINT('',(0.,0.,25.9));
#243=CARTESIAN_POINT('',(0.,0.,25.550934));
#244=CARTESIAN_POINT('',(-8.82350500000001,0.,25.550934));
#245=CARTESIAN_POINT('',(0.,0.,25.9));
#246=CARTESIAN_POINT('',(0.,0.,0.29040500000003));
#247=CARTESIAN_POINT('',(-12.46418,0.,0.29040500000003));
#248=CARTESIAN_POINT('',(0.,0.,25.550934));
#249=CARTESIAN_POINT('',(0.,0.,0.));
#250=CARTESIAN_POINT('',(-12.173775,0.,0.));
#251=CARTESIAN_POINT('',(0.,0.,0.29040500000003));
#252=CARTESIAN_POINT('',(0.,0.,0.));
#253=CARTESIAN_POINT('',(-10.998423,0.,0.));
#254=CARTESIAN_POINT('',(0.,12.173775,0.));
#255=CARTESIAN_POINT('',(0.,0.,-3.10244299999999));
#256=CARTESIAN_POINT('',(-10.998423,0.,-3.10244299999999));
#257=CARTESIAN_POINT('',(0.,0.,25.9));
#258=CARTESIAN_POINT('',(0.,0.,-3.10244299999999));
#259=CARTESIAN_POINT('',(-12.71188,0.,-3.10244299999999));
#260=CARTESIAN_POINT('',(0.,10.998423,-3.10244299999999));
#261=CARTESIAN_POINT('',(0.,0.,-3.38186599999994));
#262=CARTESIAN_POINT('',(-12.873205,0.,-3.38186599999994));
#263=CARTESIAN_POINT('',(0.,0.,-3.10244299999999));
#264=CARTESIAN_POINT('',(0.,0.,-3.58186599999997));
#265=CARTESIAN_POINT('',(-12.8732050807569,0.,-3.58186599999997));
#266=CARTESIAN_POINT('',(0.,0.,-3.48186599999997));
#267=CARTESIAN_POINT('',(0.,0.,-8.10000000000002));
#268=CARTESIAN_POINT('',(-10.264659,0.,-8.10000000000002));
#269=CARTESIAN_POINT('',(0.,0.,-3.58186599999997));
#270=CARTESIAN_POINT('',(0.,10.264659,-8.10000000000002));
#271=MECHANICAL_DESIGN_GEOMETRIC_PRESENTATION_REPRESENTATION('',(#145,#146,
#147,#148),#272);
#272=(
GEOMETRIC_REPRESENTATION_CONTEXT(3)
GLOBAL_UNCERTAINTY_ASSIGNED_CONTEXT((#273))
GLOBAL_UNIT_ASSIGNED_CONTEXT((#279,#275,#274))
REPRESENTATION_CONTEXT('1504190577220','TOP_LEVEL_ASSEMBLY_PART')
);
#273=UNCERTAINTY_MEASURE_WITH_UNIT(LENGTH_MEASURE(2.E-005),#279,
'DISTANCE_ACCURACY_VALUE','Maximum Tolerance applied to model');
#274=(
NAMED_UNIT(*)
SI_UNIT($,.STERADIAN.)
SOLID_ANGLE_UNIT()
);
#275=(
CONVERSION_BASED_UNIT('DEGREE',#277)
NAMED_UNIT(#276)
PLANE_ANGLE_UNIT()
);
#276=DIMENSIONAL_EXPONENTS(0.,0.,0.,0.,0.,0.,0.);
#277=PLANE_ANGLE_MEASURE_WITH_UNIT(PLANE_ANGLE_MEASURE(0.0174532925),#278);
#278=(
NAMED_UNIT(*)
PLANE_ANGLE_UNIT()
SI_UNIT($,.RADIAN.)
);
#279=(
LENGTH_UNIT()
NAMED_UNIT(*)
SI_UNIT(.MILLI.,.METRE.)
);
ENDSEC;
END-ISO-10303-21;
