ISO-10303-21;
HEADER;
/* Generated by software containing ST-Developer
 * from STEP Tools, Inc. (www.steptools.com) 
 */
/* OPTION: using custom schema-name function */

FILE_DESCRIPTION(
/* description */ (''),
/* implementation_level */ '2;1');

FILE_NAME(
/* name */ '1493814900657.stp',
/* time_stamp */ '2017-05-03T14:35:04+02:00',
/* author */ (''),
/* organization */ ('SMS'),
/* preprocessor_version */ 'ST-DEVELOPER v15',
/* originating_system */ 'SIEMENS PLM Software NX 8.5',
/* authorisation */ '');

FILE_SCHEMA (('AUTOMOTIVE_DESIGN { 1 0 10303 214 3 1 1 1 }'));
ENDSEC;

DATA;
#10=CONSTRUCTIVE_GEOMETRY_REPRESENTATION_RELATIONSHIP(
'supplemental geometry','',#24,#11);
#11=CONSTRUCTIVE_GEOMETRY_REPRESENTATION('supplemental geometry',(#382,
#383,#384),#672);
#12=SHAPE_REPRESENTATION_RELATIONSHIP('None',
'relationship between 200824379MOD000_02-None and 200824379MOD000_02-N
one',#24,#13);
#13=ADVANCED_BREP_SHAPE_REPRESENTATION('200824379MOD000_02-None',(#30),
#672);
#14=SHAPE_DEFINITION_REPRESENTATION(#15,#24);
#15=PRODUCT_DEFINITION_SHAPE('','',#16);
#16=PRODUCT_DEFINITION(' ','',#18,#17);
#17=PRODUCT_DEFINITION_CONTEXT('part definition',#23,'design');
#18=PRODUCT_DEFINITION_FORMATION_WITH_SPECIFIED_SOURCE(' ',' ',#20,
 .NOT_KNOWN.);
#19=PRODUCT_RELATED_PRODUCT_CATEGORY('part','',(#20));
#20=PRODUCT('200824379MOD000_02','200824379MOD000_02',' ',(#21));
#21=PRODUCT_CONTEXT(' ',#23,'mechanical');
#22=APPLICATION_PROTOCOL_DEFINITION('international standard',
'automotive_design',2010,#23);
#23=APPLICATION_CONTEXT(
'core data for automotive mechanical design processes');
#24=SHAPE_REPRESENTATION('200824379MOD000_02-None',(#381),#672);
#25=SURFACE_STYLE_USAGE(.BOTH.,#26);
#26=SURFACE_SIDE_STYLE('',(#27));
#27=SURFACE_STYLE_FILL_AREA(#28);
#28=FILL_AREA_STYLE('',(#29));
#29=FILL_AREA_STYLE_COLOUR('',#377);
#30=MANIFOLD_SOLID_BREP('',#31);
#31=CLOSED_SHELL('',(#60,#61,#62,#63,#64,#65,#66,#67,#68,#69,#70,#71,#72,
#73,#74,#75,#76,#77,#78,#79,#80,#81,#82,#83,#84,#85,#86,#87,#88,#89,#90));
#32=FACE_OUTER_BOUND('',#200,.T.);
#33=FACE_OUTER_BOUND('',#201,.T.);
#34=CONICAL_SURFACE('',#409,12.3475208614068,29.9999999999983);
#35=CONICAL_SURFACE('',#421,12.5,8.00000000000003);
#36=CONICAL_SURFACE('',#425,10.7276867794137,8.00000000000042);
#37=CONICAL_SURFACE('',#429,9.82972414065417,7.99999999999753);
#38=CONICAL_SURFACE('',#431,8.76151255150188,48.9999999999995);
#39=CONICAL_SURFACE('',#440,10.15,30.0000000000001);
#40=CONICAL_SURFACE('',#445,15.5,59.9999999999999);
#41=PLANE('',#393);
#42=PLANE('',#399);
#43=PLANE('',#403);
#44=PLANE('',#407);
#45=PLANE('',#413);
#46=PLANE('',#417);
#47=PLANE('',#432);
#48=PLANE('',#434);
#49=PLANE('',#438);
#50=PLANE('',#444);
#51=CYLINDRICAL_SURFACE('',#389,21.);
#52=CYLINDRICAL_SURFACE('',#395,15.25);
#53=CYLINDRICAL_SURFACE('',#401,11.9);
#54=CYLINDRICAL_SURFACE('',#405,13.75);
#55=CYLINDRICAL_SURFACE('',#411,12.5);
#56=CYLINDRICAL_SURFACE('',#415,11.);
#57=CYLINDRICAL_SURFACE('',#419,12.5);
#58=CYLINDRICAL_SURFACE('',#436,9.6);
#59=CYLINDRICAL_SURFACE('',#442,10.5);
#60=ADVANCED_FACE('',(#96,#97),#91,.T.);
#61=ADVANCED_FACE('',(#98,#99),#51,.T.);
#62=ADVANCED_FACE('',(#100,#101),#92,.T.);
#63=ADVANCED_FACE('',(#102,#103),#41,.F.);
#64=ADVANCED_FACE('',(#104,#105),#52,.F.);
#65=ADVANCED_FACE('',(#106,#107),#93,.F.);
#66=ADVANCED_FACE('',(#108,#109),#42,.F.);
#67=ADVANCED_FACE('',(#110,#111),#53,.F.);
#68=ADVANCED_FACE('',(#112,#113),#43,.F.);
#69=ADVANCED_FACE('',(#114,#115),#54,.F.);
#70=ADVANCED_FACE('',(#116,#117),#44,.F.);
#71=ADVANCED_FACE('',(#118,#119),#34,.T.);
#72=ADVANCED_FACE('',(#120,#121),#55,.T.);
#73=ADVANCED_FACE('',(#122,#123),#45,.F.);
#74=ADVANCED_FACE('',(#124,#125),#56,.T.);
#75=ADVANCED_FACE('',(#126,#127),#46,.F.);
#76=ADVANCED_FACE('',(#128,#129),#57,.T.);
#77=ADVANCED_FACE('',(#130,#131),#35,.T.);
#78=ADVANCED_FACE('',(#132,#133),#94,.F.);
#79=ADVANCED_FACE('',(#134,#135),#36,.T.);
#80=ADVANCED_FACE('',(#136,#137),#95,.F.);
#81=ADVANCED_FACE('',(#138,#139),#37,.T.);
#82=ADVANCED_FACE('',(#140,#141),#38,.T.);
#83=ADVANCED_FACE('',(#32),#47,.F.);
#84=ADVANCED_FACE('',(#33),#48,.F.);
#85=ADVANCED_FACE('',(#142,#143),#58,.T.);
#86=ADVANCED_FACE('',(#144,#145),#49,.F.);
#87=ADVANCED_FACE('',(#146,#147),#39,.T.);
#88=ADVANCED_FACE('',(#148,#149),#59,.F.);
#89=ADVANCED_FACE('',(#150,#151),#50,.F.);
#90=ADVANCED_FACE('',(#152,#153),#40,.T.);
#91=TOROIDAL_SURFACE('',#387,20.,1.);
#92=TOROIDAL_SURFACE('',#391,20.2,0.8);
#93=TOROIDAL_SURFACE('',#397,15.25,1.);
#94=TOROIDAL_SURFACE('',#423,11.7179548481553,1.);
#95=TOROIDAL_SURFACE('',#427,10.5352234626675,1.);
#96=FACE_BOUND('',#154,.T.);
#97=FACE_BOUND('',#155,.T.);
#98=FACE_BOUND('',#156,.T.);
#99=FACE_BOUND('',#157,.T.);
#100=FACE_BOUND('',#158,.T.);
#101=FACE_BOUND('',#159,.T.);
#102=FACE_BOUND('',#160,.T.);
#103=FACE_BOUND('',#161,.T.);
#104=FACE_BOUND('',#162,.T.);
#105=FACE_BOUND('',#163,.T.);
#106=FACE_BOUND('',#164,.T.);
#107=FACE_BOUND('',#165,.T.);
#108=FACE_BOUND('',#166,.T.);
#109=FACE_BOUND('',#167,.T.);
#110=FACE_BOUND('',#168,.T.);
#111=FACE_BOUND('',#169,.T.);
#112=FACE_BOUND('',#170,.T.);
#113=FACE_BOUND('',#171,.T.);
#114=FACE_BOUND('',#172,.T.);
#115=FACE_BOUND('',#173,.T.);
#116=FACE_BOUND('',#174,.T.);
#117=FACE_BOUND('',#175,.T.);
#118=FACE_BOUND('',#176,.T.);
#119=FACE_BOUND('',#177,.T.);
#120=FACE_BOUND('',#178,.T.);
#121=FACE_BOUND('',#179,.T.);
#122=FACE_BOUND('',#180,.T.);
#123=FACE_BOUND('',#181,.T.);
#124=FACE_BOUND('',#182,.T.);
#125=FACE_BOUND('',#183,.T.);
#126=FACE_BOUND('',#184,.T.);
#127=FACE_BOUND('',#185,.T.);
#128=FACE_BOUND('',#186,.T.);
#129=FACE_BOUND('',#187,.T.);
#130=FACE_BOUND('',#188,.T.);
#131=FACE_BOUND('',#189,.T.);
#132=FACE_BOUND('',#190,.T.);
#133=FACE_BOUND('',#191,.T.);
#134=FACE_BOUND('',#192,.T.);
#135=FACE_BOUND('',#193,.T.);
#136=FACE_BOUND('',#194,.T.);
#137=FACE_BOUND('',#195,.T.);
#138=FACE_BOUND('',#196,.T.);
#139=FACE_BOUND('',#197,.T.);
#140=FACE_BOUND('',#198,.T.);
#141=FACE_BOUND('',#199,.T.);
#142=FACE_BOUND('',#202,.T.);
#143=FACE_BOUND('',#203,.T.);
#144=FACE_BOUND('',#204,.T.);
#145=FACE_BOUND('',#205,.T.);
#146=FACE_BOUND('',#206,.T.);
#147=FACE_BOUND('',#207,.T.);
#148=FACE_BOUND('',#208,.T.);
#149=FACE_BOUND('',#209,.T.);
#150=FACE_BOUND('',#210,.T.);
#151=FACE_BOUND('',#211,.T.);
#152=FACE_BOUND('',#212,.T.);
#153=FACE_BOUND('',#213,.T.);
#154=EDGE_LOOP('',(#214));
#155=EDGE_LOOP('',(#215));
#156=EDGE_LOOP('',(#216));
#157=EDGE_LOOP('',(#217));
#158=EDGE_LOOP('',(#218));
#159=EDGE_LOOP('',(#219));
#160=EDGE_LOOP('',(#220));
#161=EDGE_LOOP('',(#221));
#162=EDGE_LOOP('',(#222));
#163=EDGE_LOOP('',(#223));
#164=EDGE_LOOP('',(#224));
#165=EDGE_LOOP('',(#225));
#166=EDGE_LOOP('',(#226));
#167=EDGE_LOOP('',(#227));
#168=EDGE_LOOP('',(#228));
#169=EDGE_LOOP('',(#229));
#170=EDGE_LOOP('',(#230));
#171=EDGE_LOOP('',(#231));
#172=EDGE_LOOP('',(#232));
#173=EDGE_LOOP('',(#233));
#174=EDGE_LOOP('',(#234));
#175=EDGE_LOOP('',(#235));
#176=EDGE_LOOP('',(#236));
#177=EDGE_LOOP('',(#237));
#178=EDGE_LOOP('',(#238));
#179=EDGE_LOOP('',(#239));
#180=EDGE_LOOP('',(#240));
#181=EDGE_LOOP('',(#241));
#182=EDGE_LOOP('',(#242));
#183=EDGE_LOOP('',(#243));
#184=EDGE_LOOP('',(#244));
#185=EDGE_LOOP('',(#245));
#186=EDGE_LOOP('',(#246));
#187=EDGE_LOOP('',(#247));
#188=EDGE_LOOP('',(#248));
#189=EDGE_LOOP('',(#249));
#190=EDGE_LOOP('',(#250));
#191=EDGE_LOOP('',(#251));
#192=EDGE_LOOP('',(#252));
#193=EDGE_LOOP('',(#253));
#194=EDGE_LOOP('',(#254));
#195=EDGE_LOOP('',(#255));
#196=EDGE_LOOP('',(#256));
#197=EDGE_LOOP('',(#257));
#198=EDGE_LOOP('',(#258));
#199=EDGE_LOOP('',(#259));
#200=EDGE_LOOP('',(#260));
#201=EDGE_LOOP('',(#261));
#202=EDGE_LOOP('',(#262));
#203=EDGE_LOOP('',(#263));
#204=EDGE_LOOP('',(#264));
#205=EDGE_LOOP('',(#265));
#206=EDGE_LOOP('',(#266));
#207=EDGE_LOOP('',(#267));
#208=EDGE_LOOP('',(#268));
#209=EDGE_LOOP('',(#269));
#210=EDGE_LOOP('',(#270));
#211=EDGE_LOOP('',(#271));
#212=EDGE_LOOP('',(#272));
#213=EDGE_LOOP('',(#273));
#214=ORIENTED_EDGE('',*,*,#304,.F.);
#215=ORIENTED_EDGE('',*,*,#305,.T.);
#216=ORIENTED_EDGE('',*,*,#306,.F.);
#217=ORIENTED_EDGE('',*,*,#304,.T.);
#218=ORIENTED_EDGE('',*,*,#307,.F.);
#219=ORIENTED_EDGE('',*,*,#306,.T.);
#220=ORIENTED_EDGE('',*,*,#308,.F.);
#221=ORIENTED_EDGE('',*,*,#307,.T.);
#222=ORIENTED_EDGE('',*,*,#309,.F.);
#223=ORIENTED_EDGE('',*,*,#308,.T.);
#224=ORIENTED_EDGE('',*,*,#310,.F.);
#225=ORIENTED_EDGE('',*,*,#309,.T.);
#226=ORIENTED_EDGE('',*,*,#311,.F.);
#227=ORIENTED_EDGE('',*,*,#310,.T.);
#228=ORIENTED_EDGE('',*,*,#312,.F.);
#229=ORIENTED_EDGE('',*,*,#311,.T.);
#230=ORIENTED_EDGE('',*,*,#313,.F.);
#231=ORIENTED_EDGE('',*,*,#312,.T.);
#232=ORIENTED_EDGE('',*,*,#314,.F.);
#233=ORIENTED_EDGE('',*,*,#313,.T.);
#234=ORIENTED_EDGE('',*,*,#315,.F.);
#235=ORIENTED_EDGE('',*,*,#314,.T.);
#236=ORIENTED_EDGE('',*,*,#316,.F.);
#237=ORIENTED_EDGE('',*,*,#315,.T.);
#238=ORIENTED_EDGE('',*,*,#317,.F.);
#239=ORIENTED_EDGE('',*,*,#316,.T.);
#240=ORIENTED_EDGE('',*,*,#318,.F.);
#241=ORIENTED_EDGE('',*,*,#317,.T.);
#242=ORIENTED_EDGE('',*,*,#319,.F.);
#243=ORIENTED_EDGE('',*,*,#318,.T.);
#244=ORIENTED_EDGE('',*,*,#320,.F.);
#245=ORIENTED_EDGE('',*,*,#319,.T.);
#246=ORIENTED_EDGE('',*,*,#321,.F.);
#247=ORIENTED_EDGE('',*,*,#320,.T.);
#248=ORIENTED_EDGE('',*,*,#322,.F.);
#249=ORIENTED_EDGE('',*,*,#321,.T.);
#250=ORIENTED_EDGE('',*,*,#323,.F.);
#251=ORIENTED_EDGE('',*,*,#322,.T.);
#252=ORIENTED_EDGE('',*,*,#324,.F.);
#253=ORIENTED_EDGE('',*,*,#323,.T.);
#254=ORIENTED_EDGE('',*,*,#325,.F.);
#255=ORIENTED_EDGE('',*,*,#324,.T.);
#256=ORIENTED_EDGE('',*,*,#326,.F.);
#257=ORIENTED_EDGE('',*,*,#325,.T.);
#258=ORIENTED_EDGE('',*,*,#327,.F.);
#259=ORIENTED_EDGE('',*,*,#326,.T.);
#260=ORIENTED_EDGE('',*,*,#327,.T.);
#261=ORIENTED_EDGE('',*,*,#328,.F.);
#262=ORIENTED_EDGE('',*,*,#329,.F.);
#263=ORIENTED_EDGE('',*,*,#328,.T.);
#264=ORIENTED_EDGE('',*,*,#330,.F.);
#265=ORIENTED_EDGE('',*,*,#329,.T.);
#266=ORIENTED_EDGE('',*,*,#331,.F.);
#267=ORIENTED_EDGE('',*,*,#330,.T.);
#268=ORIENTED_EDGE('',*,*,#332,.F.);
#269=ORIENTED_EDGE('',*,*,#331,.T.);
#270=ORIENTED_EDGE('',*,*,#333,.F.);
#271=ORIENTED_EDGE('',*,*,#332,.T.);
#272=ORIENTED_EDGE('',*,*,#305,.F.);
#273=ORIENTED_EDGE('',*,*,#333,.T.);
#274=VERTEX_POINT('',#581);
#275=VERTEX_POINT('',#583);
#276=VERTEX_POINT('',#586);
#277=VERTEX_POINT('',#589);
#278=VERTEX_POINT('',#592);
#279=VERTEX_POINT('',#595);
#280=VERTEX_POINT('',#598);
#281=VERTEX_POINT('',#601);
#282=VERTEX_POINT('',#604);
#283=VERTEX_POINT('',#607);
#284=VERTEX_POINT('',#610);
#285=VERTEX_POINT('',#613);
#286=VERTEX_POINT('',#616);
#287=VERTEX_POINT('',#619);
#288=VERTEX_POINT('',#622);
#289=VERTEX_POINT('',#625);
#290=VERTEX_POINT('',#628);
#291=VERTEX_POINT('',#631);
#292=VERTEX_POINT('',#634);
#293=VERTEX_POINT('',#637);
#294=VERTEX_POINT('',#640);
#295=VERTEX_POINT('',#643);
#296=VERTEX_POINT('',#646);
#297=VERTEX_POINT('',#649);
#298=VERTEX_POINT('',#653);
#299=VERTEX_POINT('',#656);
#300=VERTEX_POINT('',#659);
#301=VERTEX_POINT('',#662);
#302=VERTEX_POINT('',#665);
#303=VERTEX_POINT('',#668);
#304=EDGE_CURVE('',#274,#274,#334,.T.);
#305=EDGE_CURVE('',#275,#275,#335,.T.);
#306=EDGE_CURVE('',#276,#276,#336,.T.);
#307=EDGE_CURVE('',#277,#277,#337,.T.);
#308=EDGE_CURVE('',#278,#278,#338,.T.);
#309=EDGE_CURVE('',#279,#279,#339,.T.);
#310=EDGE_CURVE('',#280,#280,#340,.T.);
#311=EDGE_CURVE('',#281,#281,#341,.T.);
#312=EDGE_CURVE('',#282,#282,#342,.T.);
#313=EDGE_CURVE('',#283,#283,#343,.T.);
#314=EDGE_CURVE('',#284,#284,#344,.T.);
#315=EDGE_CURVE('',#285,#285,#345,.T.);
#316=EDGE_CURVE('',#286,#286,#346,.T.);
#317=EDGE_CURVE('',#287,#287,#347,.T.);
#318=EDGE_CURVE('',#288,#288,#348,.T.);
#319=EDGE_CURVE('',#289,#289,#349,.T.);
#320=EDGE_CURVE('',#290,#290,#350,.T.);
#321=EDGE_CURVE('',#291,#291,#351,.T.);
#322=EDGE_CURVE('',#292,#292,#352,.T.);
#323=EDGE_CURVE('',#293,#293,#353,.T.);
#324=EDGE_CURVE('',#294,#294,#354,.T.);
#325=EDGE_CURVE('',#295,#295,#355,.T.);
#326=EDGE_CURVE('',#296,#296,#356,.T.);
#327=EDGE_CURVE('',#297,#297,#357,.T.);
#328=EDGE_CURVE('',#298,#298,#358,.T.);
#329=EDGE_CURVE('',#299,#299,#359,.T.);
#330=EDGE_CURVE('',#300,#300,#360,.T.);
#331=EDGE_CURVE('',#301,#301,#361,.T.);
#332=EDGE_CURVE('',#302,#302,#362,.T.);
#333=EDGE_CURVE('',#303,#303,#363,.T.);
#334=CIRCLE('',#385,21.);
#335=CIRCLE('',#386,20.5);
#336=CIRCLE('',#388,21.);
#337=CIRCLE('',#390,20.2);
#338=CIRCLE('',#392,15.25);
#339=CIRCLE('',#394,15.25);
#340=CIRCLE('',#396,15.25);
#341=CIRCLE('',#398,11.9);
#342=CIRCLE('',#400,11.9);
#343=CIRCLE('',#402,13.75);
#344=CIRCLE('',#404,13.75);
#345=CIRCLE('',#406,12.3475208614068);
#346=CIRCLE('',#408,12.5);
#347=CIRCLE('',#410,12.5);
#348=CIRCLE('',#412,11.);
#349=CIRCLE('',#414,11.);
#350=CIRCLE('',#416,12.5);
#351=CIRCLE('',#418,12.5);
#352=CIRCLE('',#420,11.2351324876785);
#353=CIRCLE('',#422,10.7276867794137);
#354=CIRCLE('',#424,9.54495539392587);
#355=CIRCLE('',#426,9.82972414065417);
#356=CIRCLE('',#428,8.76151255150188);
#357=CIRCLE('',#430,8.18715707163181);
#358=CIRCLE('',#433,9.6);
#359=CIRCLE('',#435,9.60000000000001);
#360=CIRCLE('',#437,10.15);
#361=CIRCLE('',#439,10.5);
#362=CIRCLE('',#441,10.5);
#363=CIRCLE('',#443,15.5);
#364=PRESENTATION_LAYER_ASSIGNMENT('1','Layer 1',(#382,#383,#384,#30));
#365=STYLED_ITEM('',(#369),#382);
#366=STYLED_ITEM('',(#370),#383);
#367=STYLED_ITEM('',(#371),#384);
#368=STYLED_ITEM('',(#372),#30);
#369=PRESENTATION_STYLE_ASSIGNMENT((#373));
#370=PRESENTATION_STYLE_ASSIGNMENT((#374));
#371=PRESENTATION_STYLE_ASSIGNMENT((#375));
#372=PRESENTATION_STYLE_ASSIGNMENT((#25));
#373=CURVE_STYLE('',#378,POSITIVE_LENGTH_MEASURE(0.13),#376);
#374=CURVE_STYLE('',#379,POSITIVE_LENGTH_MEASURE(0.13),#376);
#375=CURVE_STYLE('',#380,POSITIVE_LENGTH_MEASURE(0.13),#376);
#376=COLOUR_RGB('Strong Stone',0.576470588235294,0.54508278019379,0.392156862745098);
#377=COLOUR_RGB('TLS_NOCUT',0.499992370489052,0.499992370489052,0.499992370489052);
#378=DRAUGHTING_PRE_DEFINED_CURVE_FONT('continuous');
#379=DRAUGHTING_PRE_DEFINED_CURVE_FONT('continuous');
#380=DRAUGHTING_PRE_DEFINED_CURVE_FONT('continuous');
#381=AXIS2_PLACEMENT_3D('',#576,#446,#447);
#382=AXIS2_PLACEMENT_3D('PCS',#577,#448,#449);
#383=AXIS2_PLACEMENT_3D('MCS',#578,#450,#451);
#384=AXIS2_PLACEMENT_3D('CSW',#579,#452,#453);
#385=AXIS2_PLACEMENT_3D('',#580,#454,#455);
#386=AXIS2_PLACEMENT_3D('',#582,#456,#457);
#387=AXIS2_PLACEMENT_3D('',#584,#458,#459);
#388=AXIS2_PLACEMENT_3D('',#585,#460,#461);
#389=AXIS2_PLACEMENT_3D('',#587,#462,#463);
#390=AXIS2_PLACEMENT_3D('',#588,#464,#465);
#391=AXIS2_PLACEMENT_3D('',#590,#466,#467);
#392=AXIS2_PLACEMENT_3D('',#591,#468,#469);
#393=AXIS2_PLACEMENT_3D('',#593,#470,#471);
#394=AXIS2_PLACEMENT_3D('',#594,#472,#473);
#395=AXIS2_PLACEMENT_3D('',#596,#474,#475);
#396=AXIS2_PLACEMENT_3D('',#597,#476,#477);
#397=AXIS2_PLACEMENT_3D('',#599,#478,#479);
#398=AXIS2_PLACEMENT_3D('',#600,#480,#481);
#399=AXIS2_PLACEMENT_3D('',#602,#482,#483);
#400=AXIS2_PLACEMENT_3D('',#603,#484,#485);
#401=AXIS2_PLACEMENT_3D('',#605,#486,#487);
#402=AXIS2_PLACEMENT_3D('',#606,#488,#489);
#403=AXIS2_PLACEMENT_3D('',#608,#490,#491);
#404=AXIS2_PLACEMENT_3D('',#609,#492,#493);
#405=AXIS2_PLACEMENT_3D('',#611,#494,#495);
#406=AXIS2_PLACEMENT_3D('',#612,#496,#497);
#407=AXIS2_PLACEMENT_3D('',#614,#498,#499);
#408=AXIS2_PLACEMENT_3D('',#615,#500,#501);
#409=AXIS2_PLACEMENT_3D('',#617,#502,#503);
#410=AXIS2_PLACEMENT_3D('',#618,#504,#505);
#411=AXIS2_PLACEMENT_3D('',#620,#506,#507);
#412=AXIS2_PLACEMENT_3D('',#621,#508,#509);
#413=AXIS2_PLACEMENT_3D('',#623,#510,#511);
#414=AXIS2_PLACEMENT_3D('',#624,#512,#513);
#415=AXIS2_PLACEMENT_3D('',#626,#514,#515);
#416=AXIS2_PLACEMENT_3D('',#627,#516,#517);
#417=AXIS2_PLACEMENT_3D('',#629,#518,#519);
#418=AXIS2_PLACEMENT_3D('',#630,#520,#521);
#419=AXIS2_PLACEMENT_3D('',#632,#522,#523);
#420=AXIS2_PLACEMENT_3D('',#633,#524,#525);
#421=AXIS2_PLACEMENT_3D('',#635,#526,#527);
#422=AXIS2_PLACEMENT_3D('',#636,#528,#529);
#423=AXIS2_PLACEMENT_3D('',#638,#530,#531);
#424=AXIS2_PLACEMENT_3D('',#639,#532,#533);
#425=AXIS2_PLACEMENT_3D('',#641,#534,#535);
#426=AXIS2_PLACEMENT_3D('',#642,#536,#537);
#427=AXIS2_PLACEMENT_3D('',#644,#538,#539);
#428=AXIS2_PLACEMENT_3D('',#645,#540,#541);
#429=AXIS2_PLACEMENT_3D('',#647,#542,#543);
#430=AXIS2_PLACEMENT_3D('',#648,#544,#545);
#431=AXIS2_PLACEMENT_3D('',#650,#546,#547);
#432=AXIS2_PLACEMENT_3D('',#651,#548,#549);
#433=AXIS2_PLACEMENT_3D('',#652,#550,#551);
#434=AXIS2_PLACEMENT_3D('',#654,#552,#553);
#435=AXIS2_PLACEMENT_3D('',#655,#554,#555);
#436=AXIS2_PLACEMENT_3D('',#657,#556,#557);
#437=AXIS2_PLACEMENT_3D('',#658,#558,#559);
#438=AXIS2_PLACEMENT_3D('',#660,#560,#561);
#439=AXIS2_PLACEMENT_3D('',#661,#562,#563);
#440=AXIS2_PLACEMENT_3D('',#663,#564,#565);
#441=AXIS2_PLACEMENT_3D('',#664,#566,#567);
#442=AXIS2_PLACEMENT_3D('',#666,#568,#569);
#443=AXIS2_PLACEMENT_3D('',#667,#570,#571);
#444=AXIS2_PLACEMENT_3D('',#669,#572,#573);
#445=AXIS2_PLACEMENT_3D('',#670,#574,#575);
#446=DIRECTION('',(0.,0.,1.));
#447=DIRECTION('',(1.,0.,0.));
#448=DIRECTION('',(0.,0.,1.));
#449=DIRECTION('',(1.,0.,0.));
#450=DIRECTION('',(0.,0.,1.));
#451=DIRECTION('',(1.,0.,0.));
#452=DIRECTION('',(0.,0.,1.));
#453=DIRECTION('',(1.,0.,0.));
#454=DIRECTION('',(0.,-1.89680388617218E-016,1.));
#455=DIRECTION('',(0.,-1.,-2.06514699521048E-016));
#456=DIRECTION('',(0.,-1.89680388617218E-016,1.));
#457=DIRECTION('',(0.,-1.,-1.69241314729445E-016));
#458=DIRECTION('',(0.,-1.89680388617218E-016,1.));
#459=DIRECTION('',(0.,1.,2.06514699521048E-016));
#460=DIRECTION('',(0.,-1.89680388617218E-016,1.));
#461=DIRECTION('',(0.,-1.,-1.65211759616839E-016));
#462=DIRECTION('',(0.,-1.89680388617218E-016,1.));
#463=DIRECTION('',(0.,1.,1.65211759616839E-016));
#464=DIRECTION('',(0.,-1.89680388617218E-016,1.));
#465=DIRECTION('',(0.,-1.,-1.71754799601664E-016));
#466=DIRECTION('',(0.,-1.89680388617218E-016,1.));
#467=DIRECTION('',(0.,1.,1.65211759616839E-016));
#468=DIRECTION('',(0.,-1.89680388617218E-016,1.));
#469=DIRECTION('',(0.,-1.,-2.27504718160893E-016));
#470=DIRECTION('',(0.,1.89680388617218E-016,-1.));
#471=DIRECTION('',(0.,-1.,-1.89084858881472E-016));
#472=DIRECTION('',(0.,-1.89680388617218E-016,1.));
#473=DIRECTION('',(0.,-1.,-1.90179725337621E-016));
#474=DIRECTION('',(0.,-1.89680388617218E-016,1.));
#475=DIRECTION('',(0.,1.,2.27504718160893E-016));
#476=DIRECTION('',(0.,-1.89680388617218E-016,1.));
#477=DIRECTION('',(0.,-1.,-1.84847583505725E-016));
#478=DIRECTION('',(0.,-1.89680388617218E-016,1.));
#479=DIRECTION('',(0.,1.,1.86816374335964E-016));
#480=DIRECTION('',(0.,-1.89680388617218E-016,1.));
#481=DIRECTION('',(0.,-1.,-1.82218852518572E-016));
#482=DIRECTION('',(0.,1.89680388617218E-016,-1.));
#483=DIRECTION('',(0.,-1.,-1.89735380184963E-016));
#484=DIRECTION('',(0.,-1.89680388617218E-016,1.));
#485=DIRECTION('',(0.,-1.,-1.82218852518572E-016));
#486=DIRECTION('',(0.,-1.89680388617218E-016,1.));
#487=DIRECTION('',(0.,1.,2.91550164029715E-016));
#488=DIRECTION('',(0.,-1.89680388617218E-016,1.));
#489=DIRECTION('',(0.,-1.,-1.89242561015652E-016));
#490=DIRECTION('',(0.,-1.89680388617218E-016,1.));
#491=DIRECTION('',(0.,1.,1.89518539750466E-016));
#492=DIRECTION('',(0.,-1.89680388617218E-016,1.));
#493=DIRECTION('',(0.,-1.,-1.89242561015652E-016));
#494=DIRECTION('',(0.,-1.89680388617218E-016,1.));
#495=DIRECTION('',(0.,1.,2.52323414687536E-016));
#496=DIRECTION('',(0.,-1.89680388617218E-016,1.));
#497=DIRECTION('',(0.,-1.,-2.10737462456795E-016));
#498=DIRECTION('',(0.,1.89680388617218E-016,-1.));
#499=DIRECTION('',(0.,-1.,-1.8995222061946E-016));
#500=DIRECTION('',(0.,-1.89680388617218E-016,1.));
#501=DIRECTION('',(0.,-1.,-2.08166817117217E-016));
#502=DIRECTION('',(0.,-1.89680388617218E-016,1.));
#503=DIRECTION('',(0.,1.,1.92682403755753E-016));
#504=DIRECTION('',(0.,-1.89680388617218E-016,1.));
#505=DIRECTION('',(0.,-1.,-1.73472347597681E-016));
#506=DIRECTION('',(0.,-1.89680388617218E-016,1.));
#507=DIRECTION('',(0.,1.,2.77555756156289E-016));
#508=DIRECTION('',(0.,-1.89680388617218E-016,1.));
#509=DIRECTION('',(0.,-1.,-1.97127667724637E-016));
#510=DIRECTION('',(0.,1.89680388617218E-016,-1.));
#511=DIRECTION('',(0.,-1.,-1.89518539750466E-016));
#512=DIRECTION('',(0.,-1.89680388617218E-016,1.));
#513=DIRECTION('',(0.,-1.,-1.97127667724637E-016));
#514=DIRECTION('',(0.,-1.89680388617218E-016,1.));
#515=DIRECTION('',(0.,1.,3.1540426835942E-016));
#516=DIRECTION('',(0.,-1.89680388617218E-016,1.));
#517=DIRECTION('',(0.,-1.,-1.90819582357449E-016));
#518=DIRECTION('',(0.,-1.89680388617218E-016,1.));
#519=DIRECTION('',(0.,1.,1.89735380184963E-016));
#520=DIRECTION('',(0.,-1.89680388617218E-016,1.));
#521=DIRECTION('',(0.,-1.,-1.89680388617218E-016));
#522=DIRECTION('',(0.,-1.89680388617218E-016,1.));
#523=DIRECTION('',(0.,1.,2.77555756156289E-016));
#524=DIRECTION('',(0.,-1.89680388617218E-016,1.));
#525=DIRECTION('',(0.,-1.,-1.54401692893187E-016));
#526=DIRECTION('',(0.,1.89680388617218E-016,-1.));
#527=DIRECTION('',(0.,-1.,0.));
#528=DIRECTION('',(0.,-1.89680388617218E-016,1.));
#529=DIRECTION('',(0.,-1.,-1.61705268959355E-016));
#530=DIRECTION('',(0.,-1.89680388617218E-016,1.));
#531=DIRECTION('',(0.,1.,1.36399562405148E-016));
#532=DIRECTION('',(0.,-1.89680388617218E-016,1.));
#533=DIRECTION('',(0.,-1.,-3.63484878531907E-016));
#534=DIRECTION('',(0.,1.89680388617218E-016,-1.));
#535=DIRECTION('',(0.,-1.,-1.94953310858872E-016));
#536=DIRECTION('',(0.,-1.89680388617218E-016,1.));
#537=DIRECTION('',(0.,-1.,-3.52954661016837E-016));
#538=DIRECTION('',(0.,-1.89680388617218E-016,1.));
#539=DIRECTION('',(0.,1.,3.00769808507144E-016));
#540=DIRECTION('',(0.,-1.89680388617218E-016,1.));
#541=DIRECTION('',(0.,-1.,0.));
#542=DIRECTION('',(0.,1.89680388617218E-016,-1.));
#543=DIRECTION('',(0.,-1.,-3.23017069970883E-016));
#544=DIRECTION('',(0.,-1.89680388617218E-016,1.));
#545=DIRECTION('',(0.,-1.,0.));
#546=DIRECTION('',(0.,1.89680388617218E-016,-1.));
#547=DIRECTION('',(0.,-1.,-2.15506628100576E-016));
#548=DIRECTION('',(0.,1.89680388617218E-016,-1.));
#549=DIRECTION('',(0.,-1.,-1.90819582357449E-016));
#550=DIRECTION('',(0.,-1.89680388617218E-016,1.));
#551=DIRECTION('',(0.,-1.,-3.61400724161835E-016));
#552=DIRECTION('',(0.,-1.89680388617218E-016,1.));
#553=DIRECTION('',(0.,1.,1.90819582357449E-016));
#554=DIRECTION('',(0.,-1.89680388617218E-016,1.));
#555=DIRECTION('',(0.,-1.,-1.80700362080917E-016));
#556=DIRECTION('',(0.,-1.89680388617218E-016,1.));
#557=DIRECTION('',(0.,1.,3.61400724161835E-016));
#558=DIRECTION('',(0.,-1.89680388617218E-016,1.));
#559=DIRECTION('',(0.,-1.,-1.70908716845006E-016));
#560=DIRECTION('',(0.,-1.89680388617218E-016,1.));
#561=DIRECTION('',(0.,1.,1.89084858881472E-016));
#562=DIRECTION('',(0.,-1.89680388617218E-016,1.));
#563=DIRECTION('',(0.,-1.,-1.65211759616839E-016));
#564=DIRECTION('',(0.,-1.89680388617218E-016,1.));
#565=DIRECTION('',(0.,1.,1.50588692319835E-016));
#566=DIRECTION('',(0.,-1.89680388617218E-016,1.));
#567=DIRECTION('',(0.,-1.,-1.65211759616839E-016));
#568=DIRECTION('',(0.,-1.89680388617218E-016,1.));
#569=DIRECTION('',(0.,1.,3.30423519233678E-016));
#570=DIRECTION('',(0.,-1.89680388617218E-016,1.));
#571=DIRECTION('',(0.,-1.,-2.23835287222814E-016));
#572=DIRECTION('',(0.,-1.89680388617218E-016,1.));
#573=DIRECTION('',(0.,1.,1.89084858881472E-016));
#574=DIRECTION('',(0.,-1.89680388617218E-016,1.));
#575=DIRECTION('',(0.,1.,1.95553985204498E-016));
#576=CARTESIAN_POINT('',(0.,0.,0.));
#577=CARTESIAN_POINT('',(0.,0.,0.));
#578=CARTESIAN_POINT('',(0.,0.,0.));
#579=CARTESIAN_POINT('',(0.,5.51780250487488E-015,-29.1));
#580=CARTESIAN_POINT('',(0.,1.20276438132175E-015,-6.34100546761835));
#581=CARTESIAN_POINT('',(0.,-21.,-6.34100546761835));
#582=CARTESIAN_POINT('',(0.,1.36703241646397E-015,-7.20703087140278));
#583=CARTESIAN_POINT('',(0.,-20.5,-7.20703087140278));
#584=CARTESIAN_POINT('',(0.,3.57491221178086E-015,-6.34100546761835));
#585=CARTESIAN_POINT('',(0.,-1.72727092784591E-015,9.1062177826491));
#586=CARTESIAN_POINT('',(0.,-21.,9.1062177826491));
#587=CARTESIAN_POINT('',(0.,5.51780250487488E-015,-29.09));
#588=CARTESIAN_POINT('',(0.,-1.87901523873969E-015,9.9062177826491));
#589=CARTESIAN_POINT('',(0.,-20.2,9.9062177826491));
#590=CARTESIAN_POINT('',(0.,1.0546525982724E-016,9.1062177826491));
#591=CARTESIAN_POINT('',(0.,-1.87901523873968E-015,9.9062177826491));
#592=CARTESIAN_POINT('',(0.,-15.25,9.9062177826491));
#593=CARTESIAN_POINT('',(0.,-20.2,9.9062177826491));
#594=CARTESIAN_POINT('',(0.,-3.91154691526695E-017,0.2062177826491));
#595=CARTESIAN_POINT('',(0.,-15.25,0.2062177826491));
#596=CARTESIAN_POINT('',(0.,5.51780250487488E-015,-29.09));
#597=CARTESIAN_POINT('',(0.,3.40245308081781E-016,-1.79378221735092));
#598=CARTESIAN_POINT('',(0.,-15.25,-1.79378221735092));
#599=CARTESIAN_POINT('',(0.,1.0546525982724E-016,-0.79378221735092));
#600=CARTESIAN_POINT('',(0.,3.40245308081781E-016,-1.79378221735091));
#601=CARTESIAN_POINT('',(0.,-11.9,-1.79378221735092));
#602=CARTESIAN_POINT('',(0.,-15.25,-1.79378221735092));
#603=CARTESIAN_POINT('',(0.,6.8167000759277E-016,-3.59378221735092));
#604=CARTESIAN_POINT('',(0.,-11.9,-3.59378221735092));
#605=CARTESIAN_POINT('',(0.,5.51780250487488E-015,-29.09));
#606=CARTESIAN_POINT('',(0.,6.8167000759277E-016,-3.59378221735092));
#607=CARTESIAN_POINT('',(0.,-13.75,-3.59378221735092));
#608=CARTESIAN_POINT('',(0.,-11.9,-3.59378221735092));
#609=CARTESIAN_POINT('',(0.,1.15587097913582E-015,-6.09378221735092));
#610=CARTESIAN_POINT('',(0.,-13.75,-6.09378221735092));
#611=CARTESIAN_POINT('',(0.,5.51780250487488E-015,-29.09));
#612=CARTESIAN_POINT('',(0.,1.15587097913582E-015,-6.09378221735091));
#613=CARTESIAN_POINT('',(0.,-12.3475208614068,-6.09378221735092));
#614=CARTESIAN_POINT('',(0.,-13.75,-6.09378221735092));
#615=CARTESIAN_POINT('',(0.,1.10577608214205E-015,-5.82968060221314));
#616=CARTESIAN_POINT('',(0.,-12.5,-5.82968060221314));
#617=CARTESIAN_POINT('',(0.,1.15587097913582E-015,-6.09378221735091));
#618=CARTESIAN_POINT('',(0.,7.3975351560715E-016,-3.9));
#619=CARTESIAN_POINT('',(0.,-12.5,-3.9));
#620=CARTESIAN_POINT('',(0.,5.51780250487488E-015,-29.09));
#621=CARTESIAN_POINT('',(0.,7.3975351560715E-016,-3.89999999999999));
#622=CARTESIAN_POINT('',(0.,-11.,-3.9));
#623=CARTESIAN_POINT('',(0.,-12.5,-3.9));
#624=CARTESIAN_POINT('',(0.,2.84520582925831E-016,-1.5));
#625=CARTESIAN_POINT('',(0.,-11.,-1.5));
#626=CARTESIAN_POINT('',(0.,5.51780250487488E-015,-29.09));
#627=CARTESIAN_POINT('',(0.,2.84520582925831E-016,-1.5));
#628=CARTESIAN_POINT('',(0.,-12.5,-1.5));
#629=CARTESIAN_POINT('',(0.,-11.,-1.5));
#630=CARTESIAN_POINT('',(0.,0.,0.));
#631=CARTESIAN_POINT('',(0.,-12.5,0.));
#632=CARTESIAN_POINT('',(0.,5.51780250487488E-015,-29.09));
#633=CARTESIAN_POINT('',(0.,-1.70712349755495E-015,8.9999999999999));
#634=CARTESIAN_POINT('',(0.,-11.2351324876785,8.9999999999999));
#635=CARTESIAN_POINT('',(0.,0.,0.));
#636=CARTESIAN_POINT('',(0.,-1.84683168009633E-015,9.7365452146099));
#637=CARTESIAN_POINT('',(0.,-10.7276867794137,9.7365452146099));
#638=CARTESIAN_POINT('',(0.,-1.62925821614956E-015,9.87571831557));
#639=CARTESIAN_POINT('',(0.,-3.44310047488591E-015,18.1521163046234));
#640=CARTESIAN_POINT('',(0.,-9.54495539392587,18.1521163046234));
#641=CARTESIAN_POINT('',(0.,-1.84683168009633E-015,9.7365452146099));
#642=CARTESIAN_POINT('',(0.,-3.60392738372722E-015,19.0000000000004));
#643=CARTESIAN_POINT('',(0.,-9.82972414065417,19.0000000000004));
#644=CARTESIAN_POINT('',(0.,-3.36398169212637E-015,18.2912894055835));
#645=CARTESIAN_POINT('',(0.,-5.04563498269624E-015,26.6007203985569));
#646=CARTESIAN_POINT('',(0.,-8.76151255150189,26.6007203985569));
#647=CARTESIAN_POINT('',(0.,-3.60392738372722E-015,19.0000000000004));
#648=CARTESIAN_POINT('',(0.,-5.14033853152663E-015,27.1));
#649=CARTESIAN_POINT('',(0.,-8.18715707163181,27.1));
#650=CARTESIAN_POINT('',(0.,-5.04563498269624E-015,26.6007203985569));
#651=CARTESIAN_POINT('',(0.,-8.18715707163181,27.1));
#652=CARTESIAN_POINT('',(0.,5.51780250487488E-015,-29.1));
#653=CARTESIAN_POINT('',(0.,-9.59999999999999,-29.1));
#654=CARTESIAN_POINT('',(0.,5.51780250487488E-015,-29.1));
#655=CARTESIAN_POINT('',(0.,1.87783584731046E-015,-9.9));
#656=CARTESIAN_POINT('',(0.,-9.6,-9.9));
#657=CARTESIAN_POINT('',(0.,5.51780250487488E-015,-29.09));
#658=CARTESIAN_POINT('',(0.,1.87783584731046E-015,-9.9));
#659=CARTESIAN_POINT('',(0.,-10.15,-9.9));
#660=CARTESIAN_POINT('',(0.,-9.6,-9.9));
#661=CARTESIAN_POINT('',(0.,1.76284822271091E-015,-9.29378221735089));
#662=CARTESIAN_POINT('',(0.,-10.5,-9.29378221735089));
#663=CARTESIAN_POINT('',(0.,1.87783584731046E-015,-9.9));
#664=CARTESIAN_POINT('',(0.,1.91459253360469E-015,-10.0937822173509));
#665=CARTESIAN_POINT('',(0.,-10.5,-10.0937822173509));
#666=CARTESIAN_POINT('',(0.,5.51780250487488E-015,-29.09));
#667=CARTESIAN_POINT('',(0.,1.91459253360469E-015,-10.0937822173509));
#668=CARTESIAN_POINT('',(0.,-15.5,-10.0937822173509));
#669=CARTESIAN_POINT('',(0.,-10.5,-10.0937822173509));
#670=CARTESIAN_POINT('',(0.,1.91459253360469E-015,-10.0937822173509));
#671=MECHANICAL_DESIGN_GEOMETRIC_PRESENTATION_REPRESENTATION('',(#365,#366,
#367,#368),#672);
#672=(
GEOMETRIC_REPRESENTATION_CONTEXT(3)
GLOBAL_UNCERTAINTY_ASSIGNED_CONTEXT((#673))
GLOBAL_UNIT_ASSIGNED_CONTEXT((#679,#675,#674))
REPRESENTATION_CONTEXT('1493814900657','TOP_LEVEL_ASSEMBLY_PART')
);
#673=UNCERTAINTY_MEASURE_WITH_UNIT(LENGTH_MEASURE(2.E-005),#679,
'DISTANCE_ACCURACY_VALUE','Maximum Tolerance applied to model');
#674=(
NAMED_UNIT(*)
SI_UNIT($,.STERADIAN.)
SOLID_ANGLE_UNIT()
);
#675=(
CONVERSION_BASED_UNIT('DEGREE',#677)
NAMED_UNIT(#676)
PLANE_ANGLE_UNIT()
);
#676=DIMENSIONAL_EXPONENTS(0.,0.,0.,0.,0.,0.,0.);
#677=PLANE_ANGLE_MEASURE_WITH_UNIT(PLANE_ANGLE_MEASURE(0.0174532925),#678);
#678=(
NAMED_UNIT(*)
PLANE_ANGLE_UNIT()
SI_UNIT($,.RADIAN.)
);
#679=(
LENGTH_UNIT()
NAMED_UNIT(*)
SI_UNIT(.MILLI.,.METRE.)
);
ENDSEC;
END-ISO-10303-21;
