ISO-10303-21;
HEADER;
/* Generated by software containing ST-Developer
 * from STEP Tools, Inc. (www.steptools.com) 
 */
/* OPTION: using custom schema-name function */

FILE_DESCRIPTION(
/* description */ (''),
/* implementation_level */ '2;1');

FILE_NAME(
/* name */ '1497040412897.stp',
/* time_stamp */ '2017-06-09T22:34:04+02:00',
/* author */ (''),
/* organization */ ('SMS'),
/* preprocessor_version */ 'ST-DEVELOPER v15',
/* originating_system */ 'SIEMENS PLM Software NX 8.5',
/* authorisation */ '');

FILE_SCHEMA (('AUTOMOTIVE_DESIGN { 1 0 10303 214 3 1 1 1 }'));
ENDSEC;

DATA;
#10=CONSTRUCTIVE_GEOMETRY_REPRESENTATION_RELATIONSHIP(
'supplemental geometry','',#24,#11);
#11=CONSTRUCTIVE_GEOMETRY_REPRESENTATION('supplemental geometry',(#272,
#273,#274),#472);
#12=SHAPE_REPRESENTATION_RELATIONSHIP('None',
'relationship between 392.ER327-32 14 035-None and 392.ER327-32 14 035
-None',#24,#13);
#13=ADVANCED_BREP_SHAPE_REPRESENTATION('392.ER327-32 14 035-None',(#30),
#472);
#14=SHAPE_DEFINITION_REPRESENTATION(#15,#24);
#15=PRODUCT_DEFINITION_SHAPE('','',#16);
#16=PRODUCT_DEFINITION(' ','',#18,#17);
#17=PRODUCT_DEFINITION_CONTEXT('part definition',#23,'design');
#18=PRODUCT_DEFINITION_FORMATION_WITH_SPECIFIED_SOURCE(' ',' ',#20,
 .NOT_KNOWN.);
#19=PRODUCT_RELATED_PRODUCT_CATEGORY('part','',(#20));
#20=PRODUCT('392.ER327-32 14 035','392.ER327-32 14 035',' ',(#21));
#21=PRODUCT_CONTEXT(' ',#23,'mechanical');
#22=APPLICATION_PROTOCOL_DEFINITION('international standard',
'automotive_design',2010,#23);
#23=APPLICATION_CONTEXT(
'core data for automotive mechanical design processes');
#24=SHAPE_REPRESENTATION('392.ER327-32 14 035-None',(#271),#472);
#25=SURFACE_STYLE_USAGE(.BOTH.,#26);
#26=SURFACE_SIDE_STYLE('',(#27));
#27=SURFACE_STYLE_FILL_AREA(#28);
#28=FILL_AREA_STYLE('',(#29));
#29=FILL_AREA_STYLE_COLOUR('',#267);
#30=MANIFOLD_SOLID_BREP('NOCUT',#31);
#31=CLOSED_SHELL('',(#47,#48,#49,#50,#51,#52,#53,#54,#55,#56,#57,#58,#59,
#60,#61,#62,#63,#64,#65,#66,#67));
#32=FACE_OUTER_BOUND('',#142,.T.);
#33=FACE_OUTER_BOUND('',#143,.T.);
#34=TOROIDAL_SURFACE('',#295,14.9691982463921,0.999999999999999);
#35=TOROIDAL_SURFACE('',#299,13.5237631118732,0.999999999999997);
#36=CYLINDRICAL_SURFACE('',#283,19.2500000000002);
#37=CYLINDRICAL_SURFACE('',#287,20.2500000000002);
#38=CYLINDRICAL_SURFACE('',#291,16.);
#39=CYLINDRICAL_SURFACE('',#310,6.99999999999999);
#40=CYLINDRICAL_SURFACE('',#315,25.0000000000003);
#41=PLANE('',#279);
#42=PLANE('',#285);
#43=PLANE('',#289);
#44=PLANE('',#304);
#45=PLANE('',#306);
#46=PLANE('',#312);
#47=ADVANCED_FACE('',(#76,#77),#68,.T.);
#48=ADVANCED_FACE('',(#78,#79),#41,.T.);
#49=ADVANCED_FACE('',(#80,#81),#69,.F.);
#50=ADVANCED_FACE('',(#82,#83),#36,.F.);
#51=ADVANCED_FACE('',(#84,#85),#42,.T.);
#52=ADVANCED_FACE('',(#86,#87),#37,.F.);
#53=ADVANCED_FACE('',(#88,#89),#43,.T.);
#54=ADVANCED_FACE('',(#90,#91),#38,.T.);
#55=ADVANCED_FACE('',(#92,#93),#70,.T.);
#56=ADVANCED_FACE('',(#94,#95),#34,.F.);
#57=ADVANCED_FACE('',(#96,#97),#71,.T.);
#58=ADVANCED_FACE('',(#98,#99),#35,.F.);
#59=ADVANCED_FACE('',(#100,#101),#72,.T.);
#60=ADVANCED_FACE('',(#102,#103),#73,.T.);
#61=ADVANCED_FACE('',(#32),#44,.T.);
#62=ADVANCED_FACE('',(#33),#45,.T.);
#63=ADVANCED_FACE('',(#104,#105),#74,.T.);
#64=ADVANCED_FACE('',(#106,#107),#39,.T.);
#65=ADVANCED_FACE('',(#108,#109),#46,.T.);
#66=ADVANCED_FACE('',(#110,#111),#75,.T.);
#67=ADVANCED_FACE('',(#112,#113),#40,.T.);
#68=CONICAL_SURFACE('',#277,25.0000000000003,45.0000000000002);
#69=CONICAL_SURFACE('',#281,19.7500000000002,44.9999999999998);
#70=CONICAL_SURFACE('',#293,16.,7.99999999999942);
#71=CONICAL_SURFACE('',#297,13.9789301776505,7.99999999999937);
#72=CONICAL_SURFACE('',#301,12.9081016365475,7.99999999999954);
#73=CONICAL_SURFACE('',#303,11.5162742239851,44.9999999999943);
#74=CONICAL_SURFACE('',#308,6.5,44.9999999999999);
#75=CONICAL_SURFACE('',#314,18.5000000000002,60.0000000000003);
#76=FACE_BOUND('',#114,.T.);
#77=FACE_BOUND('',#115,.T.);
#78=FACE_BOUND('',#116,.T.);
#79=FACE_BOUND('',#117,.T.);
#80=FACE_BOUND('',#118,.T.);
#81=FACE_BOUND('',#119,.T.);
#82=FACE_BOUND('',#120,.T.);
#83=FACE_BOUND('',#121,.T.);
#84=FACE_BOUND('',#122,.T.);
#85=FACE_BOUND('',#123,.T.);
#86=FACE_BOUND('',#124,.T.);
#87=FACE_BOUND('',#125,.T.);
#88=FACE_BOUND('',#126,.T.);
#89=FACE_BOUND('',#127,.T.);
#90=FACE_BOUND('',#128,.T.);
#91=FACE_BOUND('',#129,.T.);
#92=FACE_BOUND('',#130,.T.);
#93=FACE_BOUND('',#131,.T.);
#94=FACE_BOUND('',#132,.T.);
#95=FACE_BOUND('',#133,.T.);
#96=FACE_BOUND('',#134,.T.);
#97=FACE_BOUND('',#135,.T.);
#98=FACE_BOUND('',#136,.T.);
#99=FACE_BOUND('',#137,.T.);
#100=FACE_BOUND('',#138,.T.);
#101=FACE_BOUND('',#139,.T.);
#102=FACE_BOUND('',#140,.T.);
#103=FACE_BOUND('',#141,.T.);
#104=FACE_BOUND('',#144,.T.);
#105=FACE_BOUND('',#145,.T.);
#106=FACE_BOUND('',#146,.T.);
#107=FACE_BOUND('',#147,.T.);
#108=FACE_BOUND('',#148,.T.);
#109=FACE_BOUND('',#149,.T.);
#110=FACE_BOUND('',#150,.T.);
#111=FACE_BOUND('',#151,.T.);
#112=FACE_BOUND('',#152,.T.);
#113=FACE_BOUND('',#153,.T.);
#114=EDGE_LOOP('',(#154));
#115=EDGE_LOOP('',(#155));
#116=EDGE_LOOP('',(#156));
#117=EDGE_LOOP('',(#157));
#118=EDGE_LOOP('',(#158));
#119=EDGE_LOOP('',(#159));
#120=EDGE_LOOP('',(#160));
#121=EDGE_LOOP('',(#161));
#122=EDGE_LOOP('',(#162));
#123=EDGE_LOOP('',(#163));
#124=EDGE_LOOP('',(#164));
#125=EDGE_LOOP('',(#165));
#126=EDGE_LOOP('',(#166));
#127=EDGE_LOOP('',(#167));
#128=EDGE_LOOP('',(#168));
#129=EDGE_LOOP('',(#169));
#130=EDGE_LOOP('',(#170));
#131=EDGE_LOOP('',(#171));
#132=EDGE_LOOP('',(#172));
#133=EDGE_LOOP('',(#173));
#134=EDGE_LOOP('',(#174));
#135=EDGE_LOOP('',(#175));
#136=EDGE_LOOP('',(#176));
#137=EDGE_LOOP('',(#177));
#138=EDGE_LOOP('',(#178));
#139=EDGE_LOOP('',(#179));
#140=EDGE_LOOP('',(#180));
#141=EDGE_LOOP('',(#181));
#142=EDGE_LOOP('',(#182));
#143=EDGE_LOOP('',(#183));
#144=EDGE_LOOP('',(#184));
#145=EDGE_LOOP('',(#185));
#146=EDGE_LOOP('',(#186));
#147=EDGE_LOOP('',(#187));
#148=EDGE_LOOP('',(#188));
#149=EDGE_LOOP('',(#189));
#150=EDGE_LOOP('',(#190));
#151=EDGE_LOOP('',(#191));
#152=EDGE_LOOP('',(#192));
#153=EDGE_LOOP('',(#193));
#154=ORIENTED_EDGE('',*,*,#214,.T.);
#155=ORIENTED_EDGE('',*,*,#215,.F.);
#156=ORIENTED_EDGE('',*,*,#216,.T.);
#157=ORIENTED_EDGE('',*,*,#214,.F.);
#158=ORIENTED_EDGE('',*,*,#217,.T.);
#159=ORIENTED_EDGE('',*,*,#216,.F.);
#160=ORIENTED_EDGE('',*,*,#218,.T.);
#161=ORIENTED_EDGE('',*,*,#217,.F.);
#162=ORIENTED_EDGE('',*,*,#219,.T.);
#163=ORIENTED_EDGE('',*,*,#218,.F.);
#164=ORIENTED_EDGE('',*,*,#220,.T.);
#165=ORIENTED_EDGE('',*,*,#219,.F.);
#166=ORIENTED_EDGE('',*,*,#221,.T.);
#167=ORIENTED_EDGE('',*,*,#220,.F.);
#168=ORIENTED_EDGE('',*,*,#222,.T.);
#169=ORIENTED_EDGE('',*,*,#221,.F.);
#170=ORIENTED_EDGE('',*,*,#223,.T.);
#171=ORIENTED_EDGE('',*,*,#222,.F.);
#172=ORIENTED_EDGE('',*,*,#224,.T.);
#173=ORIENTED_EDGE('',*,*,#223,.F.);
#174=ORIENTED_EDGE('',*,*,#225,.T.);
#175=ORIENTED_EDGE('',*,*,#224,.F.);
#176=ORIENTED_EDGE('',*,*,#226,.T.);
#177=ORIENTED_EDGE('',*,*,#225,.F.);
#178=ORIENTED_EDGE('',*,*,#227,.T.);
#179=ORIENTED_EDGE('',*,*,#226,.F.);
#180=ORIENTED_EDGE('',*,*,#228,.T.);
#181=ORIENTED_EDGE('',*,*,#227,.F.);
#182=ORIENTED_EDGE('',*,*,#228,.F.);
#183=ORIENTED_EDGE('',*,*,#229,.T.);
#184=ORIENTED_EDGE('',*,*,#230,.T.);
#185=ORIENTED_EDGE('',*,*,#229,.F.);
#186=ORIENTED_EDGE('',*,*,#231,.T.);
#187=ORIENTED_EDGE('',*,*,#230,.F.);
#188=ORIENTED_EDGE('',*,*,#232,.T.);
#189=ORIENTED_EDGE('',*,*,#231,.F.);
#190=ORIENTED_EDGE('',*,*,#233,.T.);
#191=ORIENTED_EDGE('',*,*,#232,.F.);
#192=ORIENTED_EDGE('',*,*,#215,.T.);
#193=ORIENTED_EDGE('',*,*,#233,.F.);
#194=VERTEX_POINT('',#411);
#195=VERTEX_POINT('',#413);
#196=VERTEX_POINT('',#416);
#197=VERTEX_POINT('',#419);
#198=VERTEX_POINT('',#422);
#199=VERTEX_POINT('',#425);
#200=VERTEX_POINT('',#428);
#201=VERTEX_POINT('',#431);
#202=VERTEX_POINT('',#434);
#203=VERTEX_POINT('',#437);
#204=VERTEX_POINT('',#440);
#205=VERTEX_POINT('',#443);
#206=VERTEX_POINT('',#446);
#207=VERTEX_POINT('',#449);
#208=VERTEX_POINT('',#452);
#209=VERTEX_POINT('',#456);
#210=VERTEX_POINT('',#459);
#211=VERTEX_POINT('',#462);
#212=VERTEX_POINT('',#465);
#213=VERTEX_POINT('',#468);
#214=EDGE_CURVE('',#194,#194,#234,.T.);
#215=EDGE_CURVE('',#195,#195,#235,.T.);
#216=EDGE_CURVE('',#196,#196,#236,.T.);
#217=EDGE_CURVE('',#197,#197,#237,.T.);
#218=EDGE_CURVE('',#198,#198,#238,.T.);
#219=EDGE_CURVE('',#199,#199,#239,.T.);
#220=EDGE_CURVE('',#200,#200,#240,.T.);
#221=EDGE_CURVE('',#201,#201,#241,.T.);
#222=EDGE_CURVE('',#202,#202,#242,.T.);
#223=EDGE_CURVE('',#203,#203,#243,.T.);
#224=EDGE_CURVE('',#204,#204,#244,.T.);
#225=EDGE_CURVE('',#205,#205,#245,.T.);
#226=EDGE_CURVE('',#206,#206,#246,.T.);
#227=EDGE_CURVE('',#207,#207,#247,.T.);
#228=EDGE_CURVE('',#208,#208,#248,.T.);
#229=EDGE_CURVE('',#209,#209,#249,.T.);
#230=EDGE_CURVE('',#210,#210,#250,.T.);
#231=EDGE_CURVE('',#211,#211,#251,.T.);
#232=EDGE_CURVE('',#212,#212,#252,.T.);
#233=EDGE_CURVE('',#213,#213,#253,.T.);
#234=CIRCLE('',#275,24.5000000000003);
#235=CIRCLE('',#276,25.0000000000003);
#236=CIRCLE('',#278,19.7500000000002);
#237=CIRCLE('',#280,19.2500000000002);
#238=CIRCLE('',#282,19.2500000000002);
#239=CIRCLE('',#284,20.2500000000002);
#240=CIRCLE('',#286,20.2500000000002);
#241=CIRCLE('',#288,16.);
#242=CIRCLE('',#290,16.);
#243=CIRCLE('',#292,14.5945916529762);
#244=CIRCLE('',#294,13.9789301776505);
#245=CIRCLE('',#296,12.5334950431317);
#246=CIRCLE('',#298,12.9081016365475);
#247=CIRCLE('',#300,11.5162742239851);
#248=CIRCLE('',#302,11.0162742239851);
#249=CIRCLE('',#305,6.5);
#250=CIRCLE('',#307,6.99999999999999);
#251=CIRCLE('',#309,7.);
#252=CIRCLE('',#311,18.5000000000002);
#253=CIRCLE('',#313,25.0000000000003);
#254=PRESENTATION_LAYER_ASSIGNMENT('1','Layer 1',(#272,#273,#274,#30));
#255=STYLED_ITEM('',(#259),#272);
#256=STYLED_ITEM('',(#260),#273);
#257=STYLED_ITEM('',(#261),#274);
#258=STYLED_ITEM('',(#262),#30);
#259=PRESENTATION_STYLE_ASSIGNMENT((#263));
#260=PRESENTATION_STYLE_ASSIGNMENT((#264));
#261=PRESENTATION_STYLE_ASSIGNMENT((#265));
#262=PRESENTATION_STYLE_ASSIGNMENT((#25));
#263=CURVE_STYLE('',#268,POSITIVE_LENGTH_MEASURE(0.13),#266);
#264=CURVE_STYLE('',#269,POSITIVE_LENGTH_MEASURE(0.13),#266);
#265=CURVE_STYLE('',#270,POSITIVE_LENGTH_MEASURE(0.13),#266);
#266=COLOUR_RGB('Strong Stone',0.576470588235294,0.54508278019379,0.392156862745098);
#267=COLOUR_RGB('TLS_NOCUT',0.499992370489052,0.499992370489052,0.499992370489052);
#268=DRAUGHTING_PRE_DEFINED_CURVE_FONT('continuous');
#269=DRAUGHTING_PRE_DEFINED_CURVE_FONT('continuous');
#270=DRAUGHTING_PRE_DEFINED_CURVE_FONT('continuous');
#271=AXIS2_PLACEMENT_3D('',#406,#316,#317);
#272=AXIS2_PLACEMENT_3D('CSW',#407,#318,#319);
#273=AXIS2_PLACEMENT_3D('PCS',#408,#320,#321);
#274=AXIS2_PLACEMENT_3D('MCS',#409,#322,#323);
#275=AXIS2_PLACEMENT_3D('',#410,#324,#325);
#276=AXIS2_PLACEMENT_3D('',#412,#326,#327);
#277=AXIS2_PLACEMENT_3D('',#414,#328,#329);
#278=AXIS2_PLACEMENT_3D('',#415,#330,#331);
#279=AXIS2_PLACEMENT_3D('',#417,#332,#333);
#280=AXIS2_PLACEMENT_3D('',#418,#334,#335);
#281=AXIS2_PLACEMENT_3D('',#420,#336,#337);
#282=AXIS2_PLACEMENT_3D('',#421,#338,#339);
#283=AXIS2_PLACEMENT_3D('',#423,#340,#341);
#284=AXIS2_PLACEMENT_3D('',#424,#342,#343);
#285=AXIS2_PLACEMENT_3D('',#426,#344,#345);
#286=AXIS2_PLACEMENT_3D('',#427,#346,#347);
#287=AXIS2_PLACEMENT_3D('',#429,#348,#349);
#288=AXIS2_PLACEMENT_3D('',#430,#350,#351);
#289=AXIS2_PLACEMENT_3D('',#432,#352,#353);
#290=AXIS2_PLACEMENT_3D('',#433,#354,#355);
#291=AXIS2_PLACEMENT_3D('',#435,#356,#357);
#292=AXIS2_PLACEMENT_3D('',#436,#358,#359);
#293=AXIS2_PLACEMENT_3D('',#438,#360,#361);
#294=AXIS2_PLACEMENT_3D('',#439,#362,#363);
#295=AXIS2_PLACEMENT_3D('',#441,#364,#365);
#296=AXIS2_PLACEMENT_3D('',#442,#366,#367);
#297=AXIS2_PLACEMENT_3D('',#444,#368,#369);
#298=AXIS2_PLACEMENT_3D('',#445,#370,#371);
#299=AXIS2_PLACEMENT_3D('',#447,#372,#373);
#300=AXIS2_PLACEMENT_3D('',#448,#374,#375);
#301=AXIS2_PLACEMENT_3D('',#450,#376,#377);
#302=AXIS2_PLACEMENT_3D('',#451,#378,#379);
#303=AXIS2_PLACEMENT_3D('',#453,#380,#381);
#304=AXIS2_PLACEMENT_3D('',#454,#382,#383);
#305=AXIS2_PLACEMENT_3D('',#455,#384,#385);
#306=AXIS2_PLACEMENT_3D('',#457,#386,#387);
#307=AXIS2_PLACEMENT_3D('',#458,#388,#389);
#308=AXIS2_PLACEMENT_3D('',#460,#390,#391);
#309=AXIS2_PLACEMENT_3D('',#461,#392,#393);
#310=AXIS2_PLACEMENT_3D('',#463,#394,#395);
#311=AXIS2_PLACEMENT_3D('',#464,#396,#397);
#312=AXIS2_PLACEMENT_3D('',#466,#398,#399);
#313=AXIS2_PLACEMENT_3D('',#467,#400,#401);
#314=AXIS2_PLACEMENT_3D('',#469,#402,#403);
#315=AXIS2_PLACEMENT_3D('',#470,#404,#405);
#316=DIRECTION('',(0.,0.,1.));
#317=DIRECTION('',(1.,0.,0.));
#318=DIRECTION('',(0.,0.,1.));
#319=DIRECTION('',(1.,0.,0.));
#320=DIRECTION('',(0.,0.,1.));
#321=DIRECTION('',(1.,0.,0.));
#322=DIRECTION('',(0.,0.,1.));
#323=DIRECTION('',(1.,0.,0.));
#324=DIRECTION('',(0.,0.,-1.));
#325=DIRECTION('',(-1.,0.,0.));
#326=DIRECTION('',(0.,0.,-1.));
#327=DIRECTION('',(-1.,0.,0.));
#328=DIRECTION('',(0.,0.,-1.));
#329=DIRECTION('',(-1.,0.,-4.06179155350664E-017));
#330=DIRECTION('',(0.,0.,-1.));
#331=DIRECTION('',(-1.,0.,0.));
#332=DIRECTION('',(0.,0.,1.));
#333=DIRECTION('',(1.,0.,0.));
#334=DIRECTION('',(0.,0.,-1.));
#335=DIRECTION('',(-1.,0.,0.));
#336=DIRECTION('',(0.,0.,1.));
#337=DIRECTION('',(1.,0.,2.04135147945299E-017));
#338=DIRECTION('',(0.,0.,-1.));
#339=DIRECTION('',(-1.,0.,0.));
#340=DIRECTION('',(0.,0.,-1.));
#341=DIRECTION('',(-1.,0.,0.));
#342=DIRECTION('',(0.,0.,-1.));
#343=DIRECTION('',(-1.,0.,0.));
#344=DIRECTION('',(0.,0.,-1.));
#345=DIRECTION('',(-1.,0.,0.));
#346=DIRECTION('',(0.,0.,-1.));
#347=DIRECTION('',(-1.,0.,0.));
#348=DIRECTION('',(0.,0.,-1.));
#349=DIRECTION('',(-1.,0.,0.));
#350=DIRECTION('',(0.,0.,-1.));
#351=DIRECTION('',(-1.,0.,0.));
#352=DIRECTION('',(0.,0.,1.));
#353=DIRECTION('',(1.,0.,0.));
#354=DIRECTION('',(0.,0.,-1.));
#355=DIRECTION('',(-1.,0.,0.));
#356=DIRECTION('',(0.,0.,-1.));
#357=DIRECTION('',(-1.,0.,0.));
#358=DIRECTION('',(0.,0.,-1.));
#359=DIRECTION('',(-1.,0.,0.));
#360=DIRECTION('',(0.,0.,-1.));
#361=DIRECTION('',(-1.,0.,0.));
#362=DIRECTION('',(0.,0.,-1.));
#363=DIRECTION('',(-1.,0.,0.));
#364=DIRECTION('',(0.,0.,-1.));
#365=DIRECTION('',(-1.,0.,0.));
#366=DIRECTION('',(0.,0.,-1.));
#367=DIRECTION('',(-1.,0.,0.));
#368=DIRECTION('',(0.,0.,-1.));
#369=DIRECTION('',(-1.,0.,-8.98123797857781E-017));
#370=DIRECTION('',(0.,0.,-1.));
#371=DIRECTION('',(-1.,0.,0.));
#372=DIRECTION('',(0.,0.,-1.));
#373=DIRECTION('',(-1.,0.,0.));
#374=DIRECTION('',(0.,0.,-1.));
#375=DIRECTION('',(-1.,0.,0.));
#376=DIRECTION('',(0.,0.,-1.));
#377=DIRECTION('',(-1.,0.,-4.52195633900057E-017));
#378=DIRECTION('',(0.,0.,-1.));
#379=DIRECTION('',(-1.,0.,0.));
#380=DIRECTION('',(0.,0.,-1.));
#381=DIRECTION('',(-1.,0.,1.37197869786761E-017));
#382=DIRECTION('',(0.,0.,1.));
#383=DIRECTION('',(1.,0.,0.));
#384=DIRECTION('',(0.,0.,-1.));
#385=DIRECTION('',(-1.,0.,0.));
#386=DIRECTION('',(0.,0.,-1.));
#387=DIRECTION('',(-1.,0.,0.));
#388=DIRECTION('',(0.,0.,-1.));
#389=DIRECTION('',(-1.,0.,0.));
#390=DIRECTION('',(0.,0.,1.));
#391=DIRECTION('',(1.,0.,-5.51526589480955E-017));
#392=DIRECTION('',(0.,0.,-1.));
#393=DIRECTION('',(-1.,0.,0.));
#394=DIRECTION('',(0.,0.,-1.));
#395=DIRECTION('',(-1.,0.,0.));
#396=DIRECTION('',(0.,0.,-1.));
#397=DIRECTION('',(-1.,0.,0.));
#398=DIRECTION('',(0.,0.,-1.));
#399=DIRECTION('',(-1.,0.,0.));
#400=DIRECTION('',(0.,0.,-1.));
#401=DIRECTION('',(-1.,0.,0.));
#402=DIRECTION('',(0.,0.,1.));
#403=DIRECTION('',(1.,0.,-1.98191731251254E-017));
#404=DIRECTION('',(0.,0.,-1.));
#405=DIRECTION('',(-1.,0.,0.));
#406=CARTESIAN_POINT('',(0.,0.,0.));
#407=CARTESIAN_POINT('',(0.,0.,-41.25));
#408=CARTESIAN_POINT('',(0.,0.,0.));
#409=CARTESIAN_POINT('',(0.,0.,0.));
#410=CARTESIAN_POINT('',(0.,1.77635683940025E-015,11.9698729810782));
#411=CARTESIAN_POINT('',(-24.5000000000003,1.77635683940025E-015,11.9698729810782));
#412=CARTESIAN_POINT('',(0.,1.77635683940025E-015,11.4698729810782));
#413=CARTESIAN_POINT('',(-25.0000000000003,1.77635683940025E-015,11.4698729810782));
#414=CARTESIAN_POINT('',(0.,1.77635683940025E-015,11.4698729810782));
#415=CARTESIAN_POINT('',(0.,1.77635683940025E-015,11.9698729810782));
#416=CARTESIAN_POINT('',(-19.7500000000002,1.77635683940025E-015,11.9698729810782));
#417=CARTESIAN_POINT('',(0.,24.5000000000003,11.9698729810782));
#418=CARTESIAN_POINT('',(0.,1.77635683940025E-015,11.4698729810782));
#419=CARTESIAN_POINT('',(-19.2500000000002,1.77635683940025E-015,11.4698729810782));
#420=CARTESIAN_POINT('',(0.,1.77635683940025E-015,11.9698729810782));
#421=CARTESIAN_POINT('',(0.,1.77635683940025E-015,0.269872981078147));
#422=CARTESIAN_POINT('',(-19.2500000000002,1.77635683940025E-015,0.269872981078147));
#423=CARTESIAN_POINT('',(0.,1.77635683940025E-015,32.4033666301316));
#424=CARTESIAN_POINT('',(0.,1.77635683940025E-015,0.269872981078154));
#425=CARTESIAN_POINT('',(-20.2500000000002,1.77635683940025E-015,0.269872981078154));
#426=CARTESIAN_POINT('',(0.,19.2500000000002,0.26987298107815));
#427=CARTESIAN_POINT('',(0.,1.77635683940025E-015,-1.73012701892185));
#428=CARTESIAN_POINT('',(-20.2500000000002,1.77635683940025E-015,-1.73012701892185));
#429=CARTESIAN_POINT('',(0.,1.77635683940025E-015,32.4033666301316));
#430=CARTESIAN_POINT('',(0.,1.77635683940025E-015,-1.73012701892185));
#431=CARTESIAN_POINT('',(-16.,1.77635683940025E-015,-1.73012701892185));
#432=CARTESIAN_POINT('',(0.,20.2500000000002,-1.73012701892185));
#433=CARTESIAN_POINT('',(0.,1.77635683940025E-015,0.));
#434=CARTESIAN_POINT('',(-16.,1.77635683940025E-015,0.));
#435=CARTESIAN_POINT('',(0.,1.77635683940025E-015,32.4033666301316));
#436=CARTESIAN_POINT('',(0.,1.77635683940025E-015,9.9999999999999));
#437=CARTESIAN_POINT('',(-14.5945916529762,1.77635683940025E-015,9.9999999999999));
#438=CARTESIAN_POINT('',(0.,1.77635683940025E-015,0.));
#439=CARTESIAN_POINT('',(0.,1.77635683940025E-015,10.7880107536066));
#440=CARTESIAN_POINT('',(-13.9789301776505,1.77635683940025E-015,10.7880107536066));
#441=CARTESIAN_POINT('',(0.,1.73472347597681E-015,10.9271838545667));
#442=CARTESIAN_POINT('',(0.,1.77635683940025E-015,21.0728161454331));
#443=CARTESIAN_POINT('',(-12.5334950431317,1.77635683940025E-015,21.0728161454331));
#444=CARTESIAN_POINT('',(0.,1.77635683940025E-015,10.7880107536066));
#445=CARTESIAN_POINT('',(0.,1.77635683940025E-015,21.9999999999999));
#446=CARTESIAN_POINT('',(-12.9081016365475,1.77635683940025E-015,21.9999999999999));
#447=CARTESIAN_POINT('',(0.,1.73472347597681E-015,21.2119892463932));
#448=CARTESIAN_POINT('',(0.,1.77635683940025E-015,31.9033666301316));
#449=CARTESIAN_POINT('',(-11.5162742239851,1.77635683940025E-015,31.9033666301316));
#450=CARTESIAN_POINT('',(0.,1.77635683940025E-015,21.9999999999999));
#451=CARTESIAN_POINT('',(0.,1.77635683940025E-015,32.4033666301316));
#452=CARTESIAN_POINT('',(-11.0162742239851,1.77635683940025E-015,32.4033666301316));
#453=CARTESIAN_POINT('',(0.,1.77635683940025E-015,31.9033666301316));
#454=CARTESIAN_POINT('',(0.,11.0162742239851,32.4033666301316));
#455=CARTESIAN_POINT('',(0.,1.77635683940025E-015,-41.2466333698684));
#456=CARTESIAN_POINT('',(-6.5,1.77635683940025E-015,-41.2466333698684));
#457=CARTESIAN_POINT('',(0.,1.77635683940025E-015,-41.2466333698684));
#458=CARTESIAN_POINT('',(0.,1.77635683940025E-015,-40.7466333698684));
#459=CARTESIAN_POINT('',(-6.99999999999999,1.77635683940025E-015,-40.7466333698684));
#460=CARTESIAN_POINT('',(0.,1.77635683940025E-015,-41.2466333698684));
#461=CARTESIAN_POINT('',(0.,1.77635683940025E-015,-11.0301270189218));
#462=CARTESIAN_POINT('',(-7.,1.77635683940025E-015,-11.0301270189218));
#463=CARTESIAN_POINT('',(0.,1.77635683940025E-015,32.4033666301316));
#464=CARTESIAN_POINT('',(0.,1.77635683940025E-015,-11.0301270189219));
#465=CARTESIAN_POINT('',(-18.5000000000002,1.77635683940025E-015,-11.0301270189219));
#466=CARTESIAN_POINT('',(0.,7.,-11.0301270189219));
#467=CARTESIAN_POINT('',(0.,1.77635683940025E-015,-7.27735026918934));
#468=CARTESIAN_POINT('',(-25.0000000000003,1.77635683940025E-015,-7.27735026918934));
#469=CARTESIAN_POINT('',(0.,1.77635683940025E-015,-11.0301270189219));
#470=CARTESIAN_POINT('',(0.,1.77635683940025E-015,32.4033666301316));
#471=MECHANICAL_DESIGN_GEOMETRIC_PRESENTATION_REPRESENTATION('',(#255,#256,
#257,#258),#472);
#472=(
GEOMETRIC_REPRESENTATION_CONTEXT(3)
GLOBAL_UNCERTAINTY_ASSIGNED_CONTEXT((#473))
GLOBAL_UNIT_ASSIGNED_CONTEXT((#479,#475,#474))
REPRESENTATION_CONTEXT('1497040412897','TOP_LEVEL_ASSEMBLY_PART')
);
#473=UNCERTAINTY_MEASURE_WITH_UNIT(LENGTH_MEASURE(2.E-005),#479,
'DISTANCE_ACCURACY_VALUE','Maximum Tolerance applied to model');
#474=(
NAMED_UNIT(*)
SI_UNIT($,.STERADIAN.)
SOLID_ANGLE_UNIT()
);
#475=(
CONVERSION_BASED_UNIT('DEGREE',#477)
NAMED_UNIT(#476)
PLANE_ANGLE_UNIT()
);
#476=DIMENSIONAL_EXPONENTS(0.,0.,0.,0.,0.,0.,0.);
#477=PLANE_ANGLE_MEASURE_WITH_UNIT(PLANE_ANGLE_MEASURE(0.0174532925),#478);
#478=(
NAMED_UNIT(*)
PLANE_ANGLE_UNIT()
SI_UNIT($,.RADIAN.)
);
#479=(
LENGTH_UNIT()
NAMED_UNIT(*)
SI_UNIT(.MILLI.,.METRE.)
);
ENDSEC;
END-ISO-10303-21;
