ISO-10303-21;
HEADER;
/* Generated by software containing ST-Developer
 * from STEP Tools, Inc. (www.steptools.com) 
 */
/* OPTION: using custom schema-name function */

FILE_DESCRIPTION(
/* description */ (''),
/* implementation_level */ '2;1');

FILE_NAME(
/* name */ '1499062454005.stp',
/* time_stamp */ '2017-07-03T08:14:17+02:00',
/* author */ (''),
/* organization */ ('SMS'),
/* preprocessor_version */ 'ST-DEVELOPER v15',
/* originating_system */ 'SIEMENS PLM Software NX 8.5',
/* authorisation */ '');

FILE_SCHEMA (('AUTOMOTIVE_DESIGN { 1 0 10303 214 3 1 1 1 }'));
ENDSEC;

DATA;
#10=CONSTRUCTIVE_GEOMETRY_REPRESENTATION_RELATIONSHIP(
'supplemental geometry','',#24,#11);
#11=CONSTRUCTIVE_GEOMETRY_REPRESENTATION('supplemental geometry',(#261,
#262,#263),#452);
#12=SHAPE_REPRESENTATION_RELATIONSHIP('None',
'relationship between 200824359MOD000_03-None and 200824359MOD000_03-N
one',#24,#13);
#13=ADVANCED_BREP_SHAPE_REPRESENTATION('200824359MOD000_03-None',(#30),
#452);
#14=SHAPE_DEFINITION_REPRESENTATION(#15,#24);
#15=PRODUCT_DEFINITION_SHAPE('','',#16);
#16=PRODUCT_DEFINITION(' ','',#18,#17);
#17=PRODUCT_DEFINITION_CONTEXT('part definition',#23,'design');
#18=PRODUCT_DEFINITION_FORMATION_WITH_SPECIFIED_SOURCE(' ',' ',#20,
 .NOT_KNOWN.);
#19=PRODUCT_RELATED_PRODUCT_CATEGORY('part','',(#20));
#20=PRODUCT('200824359MOD000_03','200824359MOD000_03',' ',(#21));
#21=PRODUCT_CONTEXT(' ',#23,'mechanical');
#22=APPLICATION_PROTOCOL_DEFINITION('international standard',
'automotive_design',2010,#23);
#23=APPLICATION_CONTEXT(
'core data for automotive mechanical design processes');
#24=SHAPE_REPRESENTATION('200824359MOD000_03-None',(#260),#452);
#25=SURFACE_STYLE_USAGE(.BOTH.,#26);
#26=SURFACE_SIDE_STYLE('',(#27));
#27=SURFACE_STYLE_FILL_AREA(#28);
#28=FILL_AREA_STYLE('',(#29));
#29=FILL_AREA_STYLE_COLOUR('',#256);
#30=MANIFOLD_SOLID_BREP('NOCUT',#31);
#31=CLOSED_SHELL('',(#83,#84,#85,#86,#87,#88,#89,#90,#91,#92,#93,#94,#95,
#96,#97,#98,#99,#100,#101,#102));
#32=TOROIDAL_SURFACE('',#275,15.,1.);
#33=TOROIDAL_SURFACE('',#293,7.75055316593635,1.);
#34=TOROIDAL_SURFACE('',#297,6.82500543625419,0.999999999999996);
#35=CYLINDRICAL_SURFACE('',#269,6.);
#36=CYLINDRICAL_SURFACE('',#277,16.);
#37=CYLINDRICAL_SURFACE('',#285,10.25);
#38=CYLINDRICAL_SURFACE('',#289,8.);
#39=CONICAL_SURFACE('',#267,5.5,45.0000000000004);
#40=CONICAL_SURFACE('',#273,10.,60.0000000000004);
#41=CONICAL_SURFACE('',#279,16.,45.0000000000001);
#42=CONICAL_SURFACE('',#283,10.75,44.9999999999998);
#43=CONICAL_SURFACE('',#291,8.,7.99999999999958);
#44=CONICAL_SURFACE('',#295,6.76028509719477,7.99999999999962);
#45=CONICAL_SURFACE('',#299,6.03242831416663,7.99999999999959);
#46=CONICAL_SURFACE('',#301,5.03193060786209,44.9999999999997);
#47=FACE_BOUND('',#111,.T.);
#48=FACE_BOUND('',#112,.T.);
#49=FACE_BOUND('',#113,.T.);
#50=FACE_BOUND('',#114,.T.);
#51=FACE_BOUND('',#115,.T.);
#52=FACE_BOUND('',#116,.T.);
#53=FACE_BOUND('',#117,.T.);
#54=FACE_BOUND('',#118,.T.);
#55=FACE_BOUND('',#119,.T.);
#56=FACE_BOUND('',#120,.T.);
#57=FACE_BOUND('',#121,.T.);
#58=FACE_BOUND('',#122,.T.);
#59=FACE_BOUND('',#123,.T.);
#60=FACE_BOUND('',#124,.T.);
#61=FACE_BOUND('',#125,.T.);
#62=FACE_BOUND('',#126,.T.);
#63=FACE_BOUND('',#127,.T.);
#64=FACE_BOUND('',#128,.T.);
#65=FACE_BOUND('',#129,.T.);
#66=FACE_BOUND('',#130,.T.);
#67=FACE_BOUND('',#131,.T.);
#68=FACE_BOUND('',#132,.T.);
#69=FACE_BOUND('',#133,.T.);
#70=FACE_BOUND('',#134,.T.);
#71=FACE_BOUND('',#135,.T.);
#72=FACE_BOUND('',#136,.T.);
#73=FACE_BOUND('',#137,.T.);
#74=FACE_BOUND('',#138,.T.);
#75=FACE_BOUND('',#139,.T.);
#76=FACE_BOUND('',#140,.T.);
#77=FACE_BOUND('',#141,.T.);
#78=FACE_BOUND('',#142,.T.);
#79=FACE_BOUND('',#143,.T.);
#80=FACE_BOUND('',#144,.T.);
#81=FACE_BOUND('',#145,.T.);
#82=FACE_BOUND('',#146,.T.);
#83=ADVANCED_FACE('',(#108),#103,.F.);
#84=ADVANCED_FACE('',(#47,#48),#39,.T.);
#85=ADVANCED_FACE('',(#49,#50),#35,.T.);
#86=ADVANCED_FACE('',(#51,#52),#104,.F.);
#87=ADVANCED_FACE('',(#53,#54),#40,.T.);
#88=ADVANCED_FACE('',(#55,#56),#32,.T.);
#89=ADVANCED_FACE('',(#57,#58),#36,.T.);
#90=ADVANCED_FACE('',(#59,#60),#41,.T.);
#91=ADVANCED_FACE('',(#61,#62),#105,.F.);
#92=ADVANCED_FACE('',(#63,#64),#42,.F.);
#93=ADVANCED_FACE('',(#65,#66),#37,.F.);
#94=ADVANCED_FACE('',(#67,#68),#106,.F.);
#95=ADVANCED_FACE('',(#69,#70),#38,.T.);
#96=ADVANCED_FACE('',(#71,#72),#43,.T.);
#97=ADVANCED_FACE('',(#73,#74),#33,.F.);
#98=ADVANCED_FACE('',(#75,#76),#44,.T.);
#99=ADVANCED_FACE('',(#77,#78),#34,.F.);
#100=ADVANCED_FACE('',(#79,#80),#45,.T.);
#101=ADVANCED_FACE('',(#81,#82),#46,.T.);
#102=ADVANCED_FACE('',(#109),#107,.F.);
#103=PLANE('',#265);
#104=PLANE('',#271);
#105=PLANE('',#281);
#106=PLANE('',#287);
#107=PLANE('',#302);
#108=FACE_OUTER_BOUND('',#110,.T.);
#109=FACE_OUTER_BOUND('',#147,.T.);
#110=EDGE_LOOP('',(#148));
#111=EDGE_LOOP('',(#149));
#112=EDGE_LOOP('',(#150));
#113=EDGE_LOOP('',(#151));
#114=EDGE_LOOP('',(#152));
#115=EDGE_LOOP('',(#153));
#116=EDGE_LOOP('',(#154));
#117=EDGE_LOOP('',(#155));
#118=EDGE_LOOP('',(#156));
#119=EDGE_LOOP('',(#157));
#120=EDGE_LOOP('',(#158));
#121=EDGE_LOOP('',(#159));
#122=EDGE_LOOP('',(#160));
#123=EDGE_LOOP('',(#161));
#124=EDGE_LOOP('',(#162));
#125=EDGE_LOOP('',(#163));
#126=EDGE_LOOP('',(#164));
#127=EDGE_LOOP('',(#165));
#128=EDGE_LOOP('',(#166));
#129=EDGE_LOOP('',(#167));
#130=EDGE_LOOP('',(#168));
#131=EDGE_LOOP('',(#169));
#132=EDGE_LOOP('',(#170));
#133=EDGE_LOOP('',(#171));
#134=EDGE_LOOP('',(#172));
#135=EDGE_LOOP('',(#173));
#136=EDGE_LOOP('',(#174));
#137=EDGE_LOOP('',(#175));
#138=EDGE_LOOP('',(#176));
#139=EDGE_LOOP('',(#177));
#140=EDGE_LOOP('',(#178));
#141=EDGE_LOOP('',(#179));
#142=EDGE_LOOP('',(#180));
#143=EDGE_LOOP('',(#181));
#144=EDGE_LOOP('',(#182));
#145=EDGE_LOOP('',(#183));
#146=EDGE_LOOP('',(#184));
#147=EDGE_LOOP('',(#185));
#148=ORIENTED_EDGE('',*,*,#205,.F.);
#149=ORIENTED_EDGE('',*,*,#206,.F.);
#150=ORIENTED_EDGE('',*,*,#205,.T.);
#151=ORIENTED_EDGE('',*,*,#207,.F.);
#152=ORIENTED_EDGE('',*,*,#206,.T.);
#153=ORIENTED_EDGE('',*,*,#208,.F.);
#154=ORIENTED_EDGE('',*,*,#207,.T.);
#155=ORIENTED_EDGE('',*,*,#209,.F.);
#156=ORIENTED_EDGE('',*,*,#208,.T.);
#157=ORIENTED_EDGE('',*,*,#210,.F.);
#158=ORIENTED_EDGE('',*,*,#209,.T.);
#159=ORIENTED_EDGE('',*,*,#211,.F.);
#160=ORIENTED_EDGE('',*,*,#210,.T.);
#161=ORIENTED_EDGE('',*,*,#212,.F.);
#162=ORIENTED_EDGE('',*,*,#211,.T.);
#163=ORIENTED_EDGE('',*,*,#213,.F.);
#164=ORIENTED_EDGE('',*,*,#212,.T.);
#165=ORIENTED_EDGE('',*,*,#214,.F.);
#166=ORIENTED_EDGE('',*,*,#213,.T.);
#167=ORIENTED_EDGE('',*,*,#215,.F.);
#168=ORIENTED_EDGE('',*,*,#214,.T.);
#169=ORIENTED_EDGE('',*,*,#216,.F.);
#170=ORIENTED_EDGE('',*,*,#215,.T.);
#171=ORIENTED_EDGE('',*,*,#217,.F.);
#172=ORIENTED_EDGE('',*,*,#216,.T.);
#173=ORIENTED_EDGE('',*,*,#218,.F.);
#174=ORIENTED_EDGE('',*,*,#217,.T.);
#175=ORIENTED_EDGE('',*,*,#219,.F.);
#176=ORIENTED_EDGE('',*,*,#218,.T.);
#177=ORIENTED_EDGE('',*,*,#220,.F.);
#178=ORIENTED_EDGE('',*,*,#219,.T.);
#179=ORIENTED_EDGE('',*,*,#221,.F.);
#180=ORIENTED_EDGE('',*,*,#220,.T.);
#181=ORIENTED_EDGE('',*,*,#222,.F.);
#182=ORIENTED_EDGE('',*,*,#221,.T.);
#183=ORIENTED_EDGE('',*,*,#223,.F.);
#184=ORIENTED_EDGE('',*,*,#222,.T.);
#185=ORIENTED_EDGE('',*,*,#223,.T.);
#186=VERTEX_POINT('',#394);
#187=VERTEX_POINT('',#397);
#188=VERTEX_POINT('',#400);
#189=VERTEX_POINT('',#403);
#190=VERTEX_POINT('',#406);
#191=VERTEX_POINT('',#409);
#192=VERTEX_POINT('',#412);
#193=VERTEX_POINT('',#415);
#194=VERTEX_POINT('',#418);
#195=VERTEX_POINT('',#421);
#196=VERTEX_POINT('',#424);
#197=VERTEX_POINT('',#427);
#198=VERTEX_POINT('',#430);
#199=VERTEX_POINT('',#433);
#200=VERTEX_POINT('',#436);
#201=VERTEX_POINT('',#439);
#202=VERTEX_POINT('',#442);
#203=VERTEX_POINT('',#445);
#204=VERTEX_POINT('',#448);
#205=EDGE_CURVE('',#186,#186,#224,.T.);
#206=EDGE_CURVE('',#187,#187,#225,.T.);
#207=EDGE_CURVE('',#188,#188,#226,.T.);
#208=EDGE_CURVE('',#189,#189,#227,.T.);
#209=EDGE_CURVE('',#190,#190,#228,.T.);
#210=EDGE_CURVE('',#191,#191,#229,.T.);
#211=EDGE_CURVE('',#192,#192,#230,.T.);
#212=EDGE_CURVE('',#193,#193,#231,.T.);
#213=EDGE_CURVE('',#194,#194,#232,.T.);
#214=EDGE_CURVE('',#195,#195,#233,.T.);
#215=EDGE_CURVE('',#196,#196,#234,.T.);
#216=EDGE_CURVE('',#197,#197,#235,.T.);
#217=EDGE_CURVE('',#198,#198,#236,.T.);
#218=EDGE_CURVE('',#199,#199,#237,.T.);
#219=EDGE_CURVE('',#200,#200,#238,.T.);
#220=EDGE_CURVE('',#201,#201,#239,.T.);
#221=EDGE_CURVE('',#202,#202,#240,.T.);
#222=EDGE_CURVE('',#203,#203,#241,.T.);
#223=EDGE_CURVE('',#204,#204,#242,.T.);
#224=CIRCLE('',#264,5.5);
#225=CIRCLE('',#266,6.);
#226=CIRCLE('',#268,6.);
#227=CIRCLE('',#270,10.);
#228=CIRCLE('',#272,15.5);
#229=CIRCLE('',#274,16.);
#230=CIRCLE('',#276,16.);
#231=CIRCLE('',#278,15.5);
#232=CIRCLE('',#280,10.75);
#233=CIRCLE('',#282,10.25);
#234=CIRCLE('',#284,10.25);
#235=CIRCLE('',#286,8.);
#236=CIRCLE('',#288,8.);
#237=CIRCLE('',#290,7.1567549917857);
#238=CIRCLE('',#292,6.76028509719477);
#239=CIRCLE('',#294,5.83473736751262);
#240=CIRCLE('',#296,6.03242831416663);
#241=CIRCLE('',#298,5.03193060786209);
#242=CIRCLE('',#300,4.5319306078621);
#243=PRESENTATION_LAYER_ASSIGNMENT('1','Layer 1',(#261,#262,#263,#30));
#244=STYLED_ITEM('',(#248),#261);
#245=STYLED_ITEM('',(#249),#262);
#246=STYLED_ITEM('',(#250),#263);
#247=STYLED_ITEM('',(#251),#30);
#248=PRESENTATION_STYLE_ASSIGNMENT((#252));
#249=PRESENTATION_STYLE_ASSIGNMENT((#253));
#250=PRESENTATION_STYLE_ASSIGNMENT((#254));
#251=PRESENTATION_STYLE_ASSIGNMENT((#25));
#252=CURVE_STYLE('',#257,POSITIVE_LENGTH_MEASURE(0.13),#255);
#253=CURVE_STYLE('',#258,POSITIVE_LENGTH_MEASURE(0.13),#255);
#254=CURVE_STYLE('',#259,POSITIVE_LENGTH_MEASURE(0.13),#255);
#255=COLOUR_RGB('Strong Stone',0.576470588235294,0.54508278019379,0.392156862745098);
#256=COLOUR_RGB('TLS_NOCUT',0.499992370489052,0.499992370489052,0.499992370489052);
#257=DRAUGHTING_PRE_DEFINED_CURVE_FONT('continuous');
#258=DRAUGHTING_PRE_DEFINED_CURVE_FONT('continuous');
#259=DRAUGHTING_PRE_DEFINED_CURVE_FONT('continuous');
#260=AXIS2_PLACEMENT_3D('',#389,#303,#304);
#261=AXIS2_PLACEMENT_3D('PCS',#390,#305,#306);
#262=AXIS2_PLACEMENT_3D('MCS',#391,#307,#308);
#263=AXIS2_PLACEMENT_3D('CSW',#392,#309,#310);
#264=AXIS2_PLACEMENT_3D('',#393,#311,#312);
#265=AXIS2_PLACEMENT_3D('',#395,#313,#314);
#266=AXIS2_PLACEMENT_3D('',#396,#315,#316);
#267=AXIS2_PLACEMENT_3D('',#398,#317,#318);
#268=AXIS2_PLACEMENT_3D('',#399,#319,#320);
#269=AXIS2_PLACEMENT_3D('',#401,#321,#322);
#270=AXIS2_PLACEMENT_3D('',#402,#323,#324);
#271=AXIS2_PLACEMENT_3D('',#404,#325,#326);
#272=AXIS2_PLACEMENT_3D('',#405,#327,#328);
#273=AXIS2_PLACEMENT_3D('',#407,#329,#330);
#274=AXIS2_PLACEMENT_3D('',#408,#331,#332);
#275=AXIS2_PLACEMENT_3D('',#410,#333,#334);
#276=AXIS2_PLACEMENT_3D('',#411,#335,#336);
#277=AXIS2_PLACEMENT_3D('',#413,#337,#338);
#278=AXIS2_PLACEMENT_3D('',#414,#339,#340);
#279=AXIS2_PLACEMENT_3D('',#416,#341,#342);
#280=AXIS2_PLACEMENT_3D('',#417,#343,#344);
#281=AXIS2_PLACEMENT_3D('',#419,#345,#346);
#282=AXIS2_PLACEMENT_3D('',#420,#347,#348);
#283=AXIS2_PLACEMENT_3D('',#422,#349,#350);
#284=AXIS2_PLACEMENT_3D('',#423,#351,#352);
#285=AXIS2_PLACEMENT_3D('',#425,#353,#354);
#286=AXIS2_PLACEMENT_3D('',#426,#355,#356);
#287=AXIS2_PLACEMENT_3D('',#428,#357,#358);
#288=AXIS2_PLACEMENT_3D('',#429,#359,#360);
#289=AXIS2_PLACEMENT_3D('',#431,#361,#362);
#290=AXIS2_PLACEMENT_3D('',#432,#363,#364);
#291=AXIS2_PLACEMENT_3D('',#434,#365,#366);
#292=AXIS2_PLACEMENT_3D('',#435,#367,#368);
#293=AXIS2_PLACEMENT_3D('',#437,#369,#370);
#294=AXIS2_PLACEMENT_3D('',#438,#371,#372);
#295=AXIS2_PLACEMENT_3D('',#440,#373,#374);
#296=AXIS2_PLACEMENT_3D('',#441,#375,#376);
#297=AXIS2_PLACEMENT_3D('',#443,#377,#378);
#298=AXIS2_PLACEMENT_3D('',#444,#379,#380);
#299=AXIS2_PLACEMENT_3D('',#446,#381,#382);
#300=AXIS2_PLACEMENT_3D('',#447,#383,#384);
#301=AXIS2_PLACEMENT_3D('',#449,#385,#386);
#302=AXIS2_PLACEMENT_3D('',#450,#387,#388);
#303=DIRECTION('',(0.,0.,1.));
#304=DIRECTION('',(1.,0.,0.));
#305=DIRECTION('',(0.,0.,1.));
#306=DIRECTION('',(1.,0.,0.));
#307=DIRECTION('',(0.,0.,1.));
#308=DIRECTION('',(1.,0.,0.));
#309=DIRECTION('',(0.,0.,1.));
#310=DIRECTION('',(1.,0.,0.));
#311=DIRECTION('',(0.,1.00007475745846E-017,1.));
#312=DIRECTION('',(0.,-1.,0.));
#313=DIRECTION('',(0.,1.00007475745846E-017,1.));
#314=DIRECTION('',(0.,-1.,6.93889390390723E-018));
#315=DIRECTION('',(0.,1.00007475745846E-017,1.));
#316=DIRECTION('',(0.,-1.,0.));
#317=DIRECTION('',(0.,1.00007475745846E-017,1.));
#318=DIRECTION('',(0.,-1.,4.14056324449953E-017));
#319=DIRECTION('',(0.,1.00007475745846E-017,1.));
#320=DIRECTION('',(0.,-1.,0.));
#321=DIRECTION('',(0.,1.00007475745846E-017,1.));
#322=DIRECTION('',(0.,-1.,0.));
#323=DIRECTION('',(0.,1.00007475745846E-017,1.));
#324=DIRECTION('',(0.,-1.,0.));
#325=DIRECTION('',(0.,1.00007475745846E-017,1.));
#326=DIRECTION('',(0.,-1.,1.04083408558608E-017));
#327=DIRECTION('',(0.,1.00007475745846E-017,1.));
#328=DIRECTION('',(0.,-1.,0.));
#329=DIRECTION('',(0.,1.00007475745846E-017,1.));
#330=DIRECTION('',(0.,-1.,1.99158769473283E-018));
#331=DIRECTION('',(0.,1.00007475745846E-017,1.));
#332=DIRECTION('',(0.,-1.,0.));
#333=DIRECTION('',(0.,1.00007475745846E-017,1.));
#334=DIRECTION('',(0.,-1.,0.));
#335=DIRECTION('',(0.,1.00007475745846E-017,1.));
#336=DIRECTION('',(0.,-1.,0.));
#337=DIRECTION('',(0.,1.00007475745846E-017,1.));
#338=DIRECTION('',(0.,-1.,0.));
#339=DIRECTION('',(0.,1.00007475745846E-017,1.));
#340=DIRECTION('',(0.,-1.,0.));
#341=DIRECTION('',(0.,-1.00007475745846E-017,-1.));
#342=DIRECTION('',(0.,1.,-3.41480999208032E-017));
#343=DIRECTION('',(0.,1.00007475745846E-017,1.));
#344=DIRECTION('',(0.,-1.,0.));
#345=DIRECTION('',(0.,-1.00007475745846E-017,-1.));
#346=DIRECTION('',(0.,1.,-1.04083408558608E-017));
#347=DIRECTION('',(0.,1.00007475745846E-017,1.));
#348=DIRECTION('',(0.,-1.,0.));
#349=DIRECTION('',(0.,1.00007475745846E-017,1.));
#350=DIRECTION('',(0.,-1.,-1.02976412128231E-016));
#351=DIRECTION('',(0.,1.00007475745846E-017,1.));
#352=DIRECTION('',(0.,-1.,0.));
#353=DIRECTION('',(0.,1.00007475745846E-017,1.));
#354=DIRECTION('',(0.,-1.,0.));
#355=DIRECTION('',(0.,1.00007475745846E-017,1.));
#356=DIRECTION('',(0.,-1.,0.));
#357=DIRECTION('',(0.,-1.00007475745846E-017,-1.));
#358=DIRECTION('',(0.,1.,-9.97465998686664E-018));
#359=DIRECTION('',(0.,1.00007475745846E-017,1.));
#360=DIRECTION('',(0.,-1.,1.00007475745847E-017));
#361=DIRECTION('',(0.,1.00007475745846E-017,1.));
#362=DIRECTION('',(0.,-1.,0.));
#363=DIRECTION('',(0.,1.00007475745846E-017,1.));
#364=DIRECTION('',(0.,-1.,0.));
#365=DIRECTION('',(0.,-1.00007475745846E-017,-1.));
#366=DIRECTION('',(0.,1.,-4.67137128844737E-017));
#367=DIRECTION('',(0.,1.00007475745846E-017,1.));
#368=DIRECTION('',(0.,-1.,0.));
#369=DIRECTION('',(0.,1.00007475745846E-017,1.));
#370=DIRECTION('',(0.,-1.,0.));
#371=DIRECTION('',(0.,1.00007475745846E-017,1.));
#372=DIRECTION('',(0.,-1.,0.));
#373=DIRECTION('',(0.,-1.00007475745846E-017,-1.));
#374=DIRECTION('',(0.,1.,2.82641187521795E-016));
#375=DIRECTION('',(0.,1.00007475745846E-017,1.));
#376=DIRECTION('',(0.,-1.,0.));
#377=DIRECTION('',(0.,1.00007475745846E-017,1.));
#378=DIRECTION('',(0.,-1.,0.));
#379=DIRECTION('',(0.,1.00007475745846E-017,1.));
#380=DIRECTION('',(0.,-1.,0.));
#381=DIRECTION('',(0.,-1.00007475745846E-017,-1.));
#382=DIRECTION('',(0.,1.,4.73407889072081E-017));
#383=DIRECTION('',(0.,1.00007475745846E-017,1.));
#384=DIRECTION('',(0.,-1.,0.));
#385=DIRECTION('',(0.,-1.00007475745846E-017,-1.));
#386=DIRECTION('',(0.,1.,-1.38083053733637E-017));
#387=DIRECTION('',(0.,-1.00007475745846E-017,-1.));
#388=DIRECTION('',(0.,1.,-1.04083408558608E-017));
#389=CARTESIAN_POINT('',(0.,0.,0.));
#390=CARTESIAN_POINT('',(0.,0.,0.));
#391=CARTESIAN_POINT('',(0.,0.,0.));
#392=CARTESIAN_POINT('',(3.46944695195361E-015,6.97096405885848E-032,-34.8310889132454));
#393=CARTESIAN_POINT('',(3.46944695195361E-015,6.97096405885848E-032,-34.8310889132454));
#394=CARTESIAN_POINT('',(3.46944695195361E-015,-5.5,-34.8310889132454));
#395=CARTESIAN_POINT('',(3.5527136788005E-015,-4.44089209850063E-016,-34.8310889132454));
#396=CARTESIAN_POINT('',(3.46944695195361E-015,5.00037378729233E-018,-34.3310889132454));
#397=CARTESIAN_POINT('',(3.46944695195361E-015,-6.,-34.3310889132454));
#398=CARTESIAN_POINT('',(3.46944695195361E-015,6.97096405885848E-032,-34.8310889132454));
#399=CARTESIAN_POINT('',(3.46944695195361E-015,2.43018166062409E-016,-10.5310889132452));
#400=CARTESIAN_POINT('',(3.46944695195361E-015,-6.,-10.5310889132452));
#401=CARTESIAN_POINT('',(3.46944695195361E-015,0.,-34.8310889132454));
#402=CARTESIAN_POINT('',(3.46944695195361E-015,2.43018166062409E-016,-10.5310889132452));
#403=CARTESIAN_POINT('',(3.46944695195361E-015,-10.,-10.5310889132452));
#404=CARTESIAN_POINT('',(4.91491226573392,3.44145861810633,-10.5310889132452));
#405=CARTESIAN_POINT('',(3.46944695195361E-015,2.74774804735971E-016,-7.35566243270228));
#406=CARTESIAN_POINT('',(3.46944695195361E-015,-15.5,-7.35566243270228));
#407=CARTESIAN_POINT('',(3.46944695195361E-015,2.43018166062409E-016,-10.5310889132452));
#408=CARTESIAN_POINT('',(3.46944695195361E-015,2.83435706192396E-016,-6.48963702891785));
#409=CARTESIAN_POINT('',(3.46944695195361E-015,-16.,-6.48963702891785));
#410=CARTESIAN_POINT('',(3.46944695195361E-015,0.,-6.48963702891784));
#411=CARTESIAN_POINT('',(3.46944695195361E-015,4.18031248617641E-016,6.96891108675483));
#412=CARTESIAN_POINT('',(3.46944695195361E-015,-16.,6.96891108675483));
#413=CARTESIAN_POINT('',(3.46944695195361E-015,0.,-34.8310889132454));
#414=CARTESIAN_POINT('',(3.46944695195361E-015,4.23031622404933E-016,7.46891108675483));
#415=CARTESIAN_POINT('',(3.46944695195361E-015,-15.5,7.46891108675483));
#416=CARTESIAN_POINT('',(3.46944695195361E-015,4.18031248617641E-016,6.96891108675483));
#417=CARTESIAN_POINT('',(3.46944695195361E-015,4.23031622404933E-016,7.46891108675484));
#418=CARTESIAN_POINT('',(3.46944695195361E-015,-10.75,7.46891108675484));
#419=CARTESIAN_POINT('',(12.6968566864793,8.89043476344138,7.46891108675484));
#420=CARTESIAN_POINT('',(3.46944695195361E-015,4.18031248617641E-016,6.96891108675483));
#421=CARTESIAN_POINT('',(3.46944695195361E-015,-10.25,6.96891108675483));
#422=CARTESIAN_POINT('',(3.46944695195361E-015,4.23031622404933E-016,7.46891108675484));
#423=CARTESIAN_POINT('',(3.46944695195361E-015,3.28224535397871E-016,-2.01108891324517));
#424=CARTESIAN_POINT('',(3.46944695195361E-015,-10.25,-2.01108891324517));
#425=CARTESIAN_POINT('',(3.46944695195361E-015,0.,-34.8310889132454));
#426=CARTESIAN_POINT('',(3.46944695195361E-015,3.28224535397871E-016,-2.01108891324517));
#427=CARTESIAN_POINT('',(3.46944695195361E-015,-8.,-2.01108891324517));
#428=CARTESIAN_POINT('',(8.39630845396211,5.87915847259833,-2.01108891324517));
#429=CARTESIAN_POINT('',(3.46944695195361E-015,3.48336927969281E-016,6.93889390390723E-015));
#430=CARTESIAN_POINT('',(3.46944695195361E-015,-8.,7.01889988450391E-015));
#431=CARTESIAN_POINT('',(3.46944695195361E-015,0.,-34.8310889132454));
#432=CARTESIAN_POINT('',(3.46944695195361E-015,4.08341413416789E-016,6.));
#433=CARTESIAN_POINT('',(3.46944695195361E-015,-7.1567549917857,6.));
#434=CARTESIAN_POINT('',(3.46944695195361E-015,3.48336927969281E-016,6.93889390390723E-015));
#435=CARTESIAN_POINT('',(3.46944695195361E-015,4.1499632011862E-016,6.66544092351092));
#436=CARTESIAN_POINT('',(3.46944695195361E-015,-6.76028509719477,6.66544092351092));
#437=CARTESIAN_POINT('',(3.46944695195361E-015,0.,6.80461402447097));
#438=CARTESIAN_POINT('',(3.46944695195361E-015,4.80857386280511E-016,13.2510552159131));
#439=CARTESIAN_POINT('',(3.46944695195361E-015,-5.83473736751262,13.2510552159131));
#440=CARTESIAN_POINT('',(3.46944695195361E-015,4.1499632011862E-016,6.66544092351092));
#441=CARTESIAN_POINT('',(3.46944695195361E-015,4.88347394013466E-016,14.));
#442=CARTESIAN_POINT('',(3.46944695195361E-015,-6.03242831416663,14.));
#443=CARTESIAN_POINT('',(3.46944695195361E-015,8.67361737988404E-016,13.3902283168731));
#444=CARTESIAN_POINT('',(3.46944695195361E-015,5.59541826798011E-016,21.1189110867546));
#445=CARTESIAN_POINT('',(3.46944695195361E-015,-5.03193060786209,21.1189110867546));
#446=CARTESIAN_POINT('',(3.46944695195361E-015,4.88347394013466E-016,14.));
#447=CARTESIAN_POINT('',(3.46944695195361E-015,5.64542200585303E-016,21.6189110867546));
#448=CARTESIAN_POINT('',(3.46944695195361E-015,-4.5319306078621,21.6189110867546));
#449=CARTESIAN_POINT('',(3.46944695195361E-015,5.59541826798011E-016,21.1189110867546));
#450=CARTESIAN_POINT('',(3.71234022200607,2.59940860784782,21.6189110867546));
#451=MECHANICAL_DESIGN_GEOMETRIC_PRESENTATION_REPRESENTATION('',(#244,#245,
#246,#247),#452);
#452=(
GEOMETRIC_REPRESENTATION_CONTEXT(3)
GLOBAL_UNCERTAINTY_ASSIGNED_CONTEXT((#453))
GLOBAL_UNIT_ASSIGNED_CONTEXT((#459,#455,#454))
REPRESENTATION_CONTEXT('1499062454005','TOP_LEVEL_ASSEMBLY_PART')
);
#453=UNCERTAINTY_MEASURE_WITH_UNIT(LENGTH_MEASURE(2.E-005),#459,
'DISTANCE_ACCURACY_VALUE','Maximum Tolerance applied to model');
#454=(
NAMED_UNIT(*)
SI_UNIT($,.STERADIAN.)
SOLID_ANGLE_UNIT()
);
#455=(
CONVERSION_BASED_UNIT('DEGREE',#457)
NAMED_UNIT(#456)
PLANE_ANGLE_UNIT()
);
#456=DIMENSIONAL_EXPONENTS(0.,0.,0.,0.,0.,0.,0.);
#457=PLANE_ANGLE_MEASURE_WITH_UNIT(PLANE_ANGLE_MEASURE(0.0174532925),#458);
#458=(
NAMED_UNIT(*)
PLANE_ANGLE_UNIT()
SI_UNIT($,.RADIAN.)
);
#459=(
LENGTH_UNIT()
NAMED_UNIT(*)
SI_UNIT(.MILLI.,.METRE.)
);
ENDSEC;
END-ISO-10303-21;
