ISO-10303-21;
HEADER;
/* Generated by software containing ST-Developer
 * from STEP Tools, Inc. (www.steptools.com) 
 */
/* OPTION: using custom schema-name function */

FILE_DESCRIPTION(
/* description */ (''),
/* implementation_level */ '2;1');

FILE_NAME(
/* name */ '1499061771913.stp',
/* time_stamp */ '2017-07-03T08:03:01+02:00',
/* author */ (''),
/* organization */ ('SMS'),
/* preprocessor_version */ 'ST-DEVELOPER v15',
/* originating_system */ 'SIEMENS PLM Software NX 8.5',
/* authorisation */ '');

FILE_SCHEMA (('AUTOMOTIVE_DESIGN { 1 0 10303 214 3 1 1 1 }'));
ENDSEC;

DATA;
#10=CONSTRUCTIVE_GEOMETRY_REPRESENTATION_RELATIONSHIP(
'supplemental geometry','',#24,#11);
#11=CONSTRUCTIVE_GEOMETRY_REPRESENTATION('supplemental geometry',(#261,
#262,#263),#452);
#12=SHAPE_REPRESENTATION_RELATIONSHIP('None',
'relationship between 200824358MOD000_03-None and 200824358MOD000_03-N
one',#24,#13);
#13=ADVANCED_BREP_SHAPE_REPRESENTATION('200824358MOD000_03-None',(#30),
#452);
#14=SHAPE_DEFINITION_REPRESENTATION(#15,#24);
#15=PRODUCT_DEFINITION_SHAPE('','',#16);
#16=PRODUCT_DEFINITION(' ','',#18,#17);
#17=PRODUCT_DEFINITION_CONTEXT('part definition',#23,'design');
#18=PRODUCT_DEFINITION_FORMATION_WITH_SPECIFIED_SOURCE(' ',' ',#20,
 .NOT_KNOWN.);
#19=PRODUCT_RELATED_PRODUCT_CATEGORY('part','',(#20));
#20=PRODUCT('200824358MOD000_03','200824358MOD000_03',' ',(#21));
#21=PRODUCT_CONTEXT(' ',#23,'mechanical');
#22=APPLICATION_PROTOCOL_DEFINITION('international standard',
'automotive_design',2010,#23);
#23=APPLICATION_CONTEXT(
'core data for automotive mechanical design processes');
#24=SHAPE_REPRESENTATION('200824358MOD000_03-None',(#260),#452);
#25=SURFACE_STYLE_USAGE(.BOTH.,#26);
#26=SURFACE_SIDE_STYLE('',(#27));
#27=SURFACE_STYLE_FILL_AREA(#28);
#28=FILL_AREA_STYLE('',(#29));
#29=FILL_AREA_STYLE_COLOUR('',#256);
#30=MANIFOLD_SOLID_BREP('NOCUT',#31);
#31=CLOSED_SHELL('',(#83,#84,#85,#86,#87,#88,#89,#90,#91,#92,#93,#94,#95,
#96,#97,#98,#99,#100,#101,#102));
#32=CYLINDRICAL_SURFACE('',#279,8.);
#33=CYLINDRICAL_SURFACE('',#283,10.25);
#34=CYLINDRICAL_SURFACE('',#291,16.);
#35=CYLINDRICAL_SURFACE('',#299,4.5);
#36=TOROIDAL_SURFACE('',#271,6.82500543625419,0.999999999999995);
#37=TOROIDAL_SURFACE('',#275,7.75055316593634,1.);
#38=TOROIDAL_SURFACE('',#293,15.,1.);
#39=CONICAL_SURFACE('',#267,4.53052519951506,45.0000000000001);
#40=CONICAL_SURFACE('',#269,5.03052519951506,7.99999999999957);
#41=CONICAL_SURFACE('',#273,5.83473736751262,7.99999999999954);
#42=CONICAL_SURFACE('',#277,7.1567549917857,7.99999999999954);
#43=CONICAL_SURFACE('',#285,10.25,45.);
#44=CONICAL_SURFACE('',#289,15.5,44.9999999999997);
#45=CONICAL_SURFACE('',#295,15.5,60.0000000000003);
#46=CONICAL_SURFACE('',#301,4.5,45.0000000000001);
#47=FACE_BOUND('',#111,.T.);
#48=FACE_BOUND('',#112,.T.);
#49=FACE_BOUND('',#113,.T.);
#50=FACE_BOUND('',#114,.T.);
#51=FACE_BOUND('',#115,.T.);
#52=FACE_BOUND('',#116,.T.);
#53=FACE_BOUND('',#117,.T.);
#54=FACE_BOUND('',#118,.T.);
#55=FACE_BOUND('',#119,.T.);
#56=FACE_BOUND('',#120,.T.);
#57=FACE_BOUND('',#121,.T.);
#58=FACE_BOUND('',#122,.T.);
#59=FACE_BOUND('',#123,.T.);
#60=FACE_BOUND('',#124,.T.);
#61=FACE_BOUND('',#125,.T.);
#62=FACE_BOUND('',#126,.T.);
#63=FACE_BOUND('',#127,.T.);
#64=FACE_BOUND('',#128,.T.);
#65=FACE_BOUND('',#129,.T.);
#66=FACE_BOUND('',#130,.T.);
#67=FACE_BOUND('',#131,.T.);
#68=FACE_BOUND('',#132,.T.);
#69=FACE_BOUND('',#133,.T.);
#70=FACE_BOUND('',#134,.T.);
#71=FACE_BOUND('',#135,.T.);
#72=FACE_BOUND('',#136,.T.);
#73=FACE_BOUND('',#137,.T.);
#74=FACE_BOUND('',#138,.T.);
#75=FACE_BOUND('',#139,.T.);
#76=FACE_BOUND('',#140,.T.);
#77=FACE_BOUND('',#141,.T.);
#78=FACE_BOUND('',#142,.T.);
#79=FACE_BOUND('',#143,.T.);
#80=FACE_BOUND('',#144,.T.);
#81=FACE_BOUND('',#145,.T.);
#82=FACE_BOUND('',#146,.T.);
#83=ADVANCED_FACE('',(#108),#103,.T.);
#84=ADVANCED_FACE('',(#47,#48),#39,.T.);
#85=ADVANCED_FACE('',(#49,#50),#40,.T.);
#86=ADVANCED_FACE('',(#51,#52),#36,.F.);
#87=ADVANCED_FACE('',(#53,#54),#41,.T.);
#88=ADVANCED_FACE('',(#55,#56),#37,.F.);
#89=ADVANCED_FACE('',(#57,#58),#42,.T.);
#90=ADVANCED_FACE('',(#59,#60),#32,.T.);
#91=ADVANCED_FACE('',(#61,#62),#104,.T.);
#92=ADVANCED_FACE('',(#63,#64),#33,.F.);
#93=ADVANCED_FACE('',(#65,#66),#43,.F.);
#94=ADVANCED_FACE('',(#67,#68),#105,.T.);
#95=ADVANCED_FACE('',(#69,#70),#44,.T.);
#96=ADVANCED_FACE('',(#71,#72),#34,.T.);
#97=ADVANCED_FACE('',(#73,#74),#38,.T.);
#98=ADVANCED_FACE('',(#75,#76),#45,.T.);
#99=ADVANCED_FACE('',(#77,#78),#106,.T.);
#100=ADVANCED_FACE('',(#79,#80),#35,.T.);
#101=ADVANCED_FACE('',(#81,#82),#46,.T.);
#102=ADVANCED_FACE('',(#109),#107,.T.);
#103=PLANE('',#265);
#104=PLANE('',#281);
#105=PLANE('',#287);
#106=PLANE('',#297);
#107=PLANE('',#302);
#108=FACE_OUTER_BOUND('',#110,.T.);
#109=FACE_OUTER_BOUND('',#147,.T.);
#110=EDGE_LOOP('',(#148));
#111=EDGE_LOOP('',(#149));
#112=EDGE_LOOP('',(#150));
#113=EDGE_LOOP('',(#151));
#114=EDGE_LOOP('',(#152));
#115=EDGE_LOOP('',(#153));
#116=EDGE_LOOP('',(#154));
#117=EDGE_LOOP('',(#155));
#118=EDGE_LOOP('',(#156));
#119=EDGE_LOOP('',(#157));
#120=EDGE_LOOP('',(#158));
#121=EDGE_LOOP('',(#159));
#122=EDGE_LOOP('',(#160));
#123=EDGE_LOOP('',(#161));
#124=EDGE_LOOP('',(#162));
#125=EDGE_LOOP('',(#163));
#126=EDGE_LOOP('',(#164));
#127=EDGE_LOOP('',(#165));
#128=EDGE_LOOP('',(#166));
#129=EDGE_LOOP('',(#167));
#130=EDGE_LOOP('',(#168));
#131=EDGE_LOOP('',(#169));
#132=EDGE_LOOP('',(#170));
#133=EDGE_LOOP('',(#171));
#134=EDGE_LOOP('',(#172));
#135=EDGE_LOOP('',(#173));
#136=EDGE_LOOP('',(#174));
#137=EDGE_LOOP('',(#175));
#138=EDGE_LOOP('',(#176));
#139=EDGE_LOOP('',(#177));
#140=EDGE_LOOP('',(#178));
#141=EDGE_LOOP('',(#179));
#142=EDGE_LOOP('',(#180));
#143=EDGE_LOOP('',(#181));
#144=EDGE_LOOP('',(#182));
#145=EDGE_LOOP('',(#183));
#146=EDGE_LOOP('',(#184));
#147=EDGE_LOOP('',(#185));
#148=ORIENTED_EDGE('',*,*,#205,.T.);
#149=ORIENTED_EDGE('',*,*,#206,.T.);
#150=ORIENTED_EDGE('',*,*,#205,.F.);
#151=ORIENTED_EDGE('',*,*,#207,.T.);
#152=ORIENTED_EDGE('',*,*,#206,.F.);
#153=ORIENTED_EDGE('',*,*,#208,.T.);
#154=ORIENTED_EDGE('',*,*,#207,.F.);
#155=ORIENTED_EDGE('',*,*,#209,.T.);
#156=ORIENTED_EDGE('',*,*,#208,.F.);
#157=ORIENTED_EDGE('',*,*,#210,.T.);
#158=ORIENTED_EDGE('',*,*,#209,.F.);
#159=ORIENTED_EDGE('',*,*,#211,.T.);
#160=ORIENTED_EDGE('',*,*,#210,.F.);
#161=ORIENTED_EDGE('',*,*,#212,.T.);
#162=ORIENTED_EDGE('',*,*,#211,.F.);
#163=ORIENTED_EDGE('',*,*,#213,.T.);
#164=ORIENTED_EDGE('',*,*,#212,.F.);
#165=ORIENTED_EDGE('',*,*,#214,.T.);
#166=ORIENTED_EDGE('',*,*,#213,.F.);
#167=ORIENTED_EDGE('',*,*,#215,.T.);
#168=ORIENTED_EDGE('',*,*,#214,.F.);
#169=ORIENTED_EDGE('',*,*,#216,.T.);
#170=ORIENTED_EDGE('',*,*,#215,.F.);
#171=ORIENTED_EDGE('',*,*,#217,.T.);
#172=ORIENTED_EDGE('',*,*,#216,.F.);
#173=ORIENTED_EDGE('',*,*,#218,.T.);
#174=ORIENTED_EDGE('',*,*,#217,.F.);
#175=ORIENTED_EDGE('',*,*,#219,.T.);
#176=ORIENTED_EDGE('',*,*,#218,.F.);
#177=ORIENTED_EDGE('',*,*,#220,.T.);
#178=ORIENTED_EDGE('',*,*,#219,.F.);
#179=ORIENTED_EDGE('',*,*,#221,.T.);
#180=ORIENTED_EDGE('',*,*,#220,.F.);
#181=ORIENTED_EDGE('',*,*,#222,.T.);
#182=ORIENTED_EDGE('',*,*,#221,.F.);
#183=ORIENTED_EDGE('',*,*,#223,.T.);
#184=ORIENTED_EDGE('',*,*,#222,.F.);
#185=ORIENTED_EDGE('',*,*,#223,.F.);
#186=VERTEX_POINT('',#394);
#187=VERTEX_POINT('',#397);
#188=VERTEX_POINT('',#400);
#189=VERTEX_POINT('',#403);
#190=VERTEX_POINT('',#406);
#191=VERTEX_POINT('',#409);
#192=VERTEX_POINT('',#412);
#193=VERTEX_POINT('',#415);
#194=VERTEX_POINT('',#418);
#195=VERTEX_POINT('',#421);
#196=VERTEX_POINT('',#424);
#197=VERTEX_POINT('',#427);
#198=VERTEX_POINT('',#430);
#199=VERTEX_POINT('',#433);
#200=VERTEX_POINT('',#436);
#201=VERTEX_POINT('',#439);
#202=VERTEX_POINT('',#442);
#203=VERTEX_POINT('',#445);
#204=VERTEX_POINT('',#448);
#205=EDGE_CURVE('',#186,#186,#224,.T.);
#206=EDGE_CURVE('',#187,#187,#225,.T.);
#207=EDGE_CURVE('',#188,#188,#226,.T.);
#208=EDGE_CURVE('',#189,#189,#227,.T.);
#209=EDGE_CURVE('',#190,#190,#228,.T.);
#210=EDGE_CURVE('',#191,#191,#229,.T.);
#211=EDGE_CURVE('',#192,#192,#230,.T.);
#212=EDGE_CURVE('',#193,#193,#231,.T.);
#213=EDGE_CURVE('',#194,#194,#232,.T.);
#214=EDGE_CURVE('',#195,#195,#233,.T.);
#215=EDGE_CURVE('',#196,#196,#234,.T.);
#216=EDGE_CURVE('',#197,#197,#235,.T.);
#217=EDGE_CURVE('',#198,#198,#236,.T.);
#218=EDGE_CURVE('',#199,#199,#237,.T.);
#219=EDGE_CURVE('',#200,#200,#238,.T.);
#220=EDGE_CURVE('',#201,#201,#239,.T.);
#221=EDGE_CURVE('',#202,#202,#240,.T.);
#222=EDGE_CURVE('',#203,#203,#241,.T.);
#223=EDGE_CURVE('',#204,#204,#242,.T.);
#224=CIRCLE('',#264,4.53052519951506);
#225=CIRCLE('',#266,5.03052519951506);
#226=CIRCLE('',#268,6.03242831416663);
#227=CIRCLE('',#270,5.83473736751262);
#228=CIRCLE('',#272,6.76028509719476);
#229=CIRCLE('',#274,7.1567549917857);
#230=CIRCLE('',#276,8.);
#231=CIRCLE('',#278,8.);
#232=CIRCLE('',#280,10.25);
#233=CIRCLE('',#282,10.25);
#234=CIRCLE('',#284,10.75);
#235=CIRCLE('',#286,15.5);
#236=CIRCLE('',#288,16.);
#237=CIRCLE('',#290,16.);
#238=CIRCLE('',#292,15.5);
#239=CIRCLE('',#294,10.);
#240=CIRCLE('',#296,4.5);
#241=CIRCLE('',#298,4.5);
#242=CIRCLE('',#300,4.);
#243=PRESENTATION_LAYER_ASSIGNMENT('1','Layer 1',(#261,#262,#263,#30));
#244=STYLED_ITEM('',(#248),#261);
#245=STYLED_ITEM('',(#249),#262);
#246=STYLED_ITEM('',(#250),#263);
#247=STYLED_ITEM('',(#251),#30);
#248=PRESENTATION_STYLE_ASSIGNMENT((#252));
#249=PRESENTATION_STYLE_ASSIGNMENT((#253));
#250=PRESENTATION_STYLE_ASSIGNMENT((#254));
#251=PRESENTATION_STYLE_ASSIGNMENT((#25));
#252=CURVE_STYLE('',#257,POSITIVE_LENGTH_MEASURE(0.13),#255);
#253=CURVE_STYLE('',#258,POSITIVE_LENGTH_MEASURE(0.13),#255);
#254=CURVE_STYLE('',#259,POSITIVE_LENGTH_MEASURE(0.13),#255);
#255=COLOUR_RGB('Strong Stone',0.576470588235294,0.54508278019379,0.392156862745098);
#256=COLOUR_RGB('TLS_NOCUT',0.499992370489052,0.499992370489052,0.499992370489052);
#257=DRAUGHTING_PRE_DEFINED_CURVE_FONT('continuous');
#258=DRAUGHTING_PRE_DEFINED_CURVE_FONT('continuous');
#259=DRAUGHTING_PRE_DEFINED_CURVE_FONT('continuous');
#260=AXIS2_PLACEMENT_3D('',#389,#303,#304);
#261=AXIS2_PLACEMENT_3D('PCS',#390,#305,#306);
#262=AXIS2_PLACEMENT_3D('MCS',#391,#307,#308);
#263=AXIS2_PLACEMENT_3D('CSW',#392,#309,#310);
#264=AXIS2_PLACEMENT_3D('',#393,#311,#312);
#265=AXIS2_PLACEMENT_3D('',#395,#313,#314);
#266=AXIS2_PLACEMENT_3D('',#396,#315,#316);
#267=AXIS2_PLACEMENT_3D('',#398,#317,#318);
#268=AXIS2_PLACEMENT_3D('',#399,#319,#320);
#269=AXIS2_PLACEMENT_3D('',#401,#321,#322);
#270=AXIS2_PLACEMENT_3D('',#402,#323,#324);
#271=AXIS2_PLACEMENT_3D('',#404,#325,#326);
#272=AXIS2_PLACEMENT_3D('',#405,#327,#328);
#273=AXIS2_PLACEMENT_3D('',#407,#329,#330);
#274=AXIS2_PLACEMENT_3D('',#408,#331,#332);
#275=AXIS2_PLACEMENT_3D('',#410,#333,#334);
#276=AXIS2_PLACEMENT_3D('',#411,#335,#336);
#277=AXIS2_PLACEMENT_3D('',#413,#337,#338);
#278=AXIS2_PLACEMENT_3D('',#414,#339,#340);
#279=AXIS2_PLACEMENT_3D('',#416,#341,#342);
#280=AXIS2_PLACEMENT_3D('',#417,#343,#344);
#281=AXIS2_PLACEMENT_3D('',#419,#345,#346);
#282=AXIS2_PLACEMENT_3D('',#420,#347,#348);
#283=AXIS2_PLACEMENT_3D('',#422,#349,#350);
#284=AXIS2_PLACEMENT_3D('',#423,#351,#352);
#285=AXIS2_PLACEMENT_3D('',#425,#353,#354);
#286=AXIS2_PLACEMENT_3D('',#426,#355,#356);
#287=AXIS2_PLACEMENT_3D('',#428,#357,#358);
#288=AXIS2_PLACEMENT_3D('',#429,#359,#360);
#289=AXIS2_PLACEMENT_3D('',#431,#361,#362);
#290=AXIS2_PLACEMENT_3D('',#432,#363,#364);
#291=AXIS2_PLACEMENT_3D('',#434,#365,#366);
#292=AXIS2_PLACEMENT_3D('',#435,#367,#368);
#293=AXIS2_PLACEMENT_3D('',#437,#369,#370);
#294=AXIS2_PLACEMENT_3D('',#438,#371,#372);
#295=AXIS2_PLACEMENT_3D('',#440,#373,#374);
#296=AXIS2_PLACEMENT_3D('',#441,#375,#376);
#297=AXIS2_PLACEMENT_3D('',#443,#377,#378);
#298=AXIS2_PLACEMENT_3D('',#444,#379,#380);
#299=AXIS2_PLACEMENT_3D('',#446,#381,#382);
#300=AXIS2_PLACEMENT_3D('',#447,#383,#384);
#301=AXIS2_PLACEMENT_3D('',#449,#385,#386);
#302=AXIS2_PLACEMENT_3D('',#450,#387,#388);
#303=DIRECTION('',(0.,0.,1.));
#304=DIRECTION('',(1.,0.,0.));
#305=DIRECTION('',(0.,0.,1.));
#306=DIRECTION('',(1.,0.,0.));
#307=DIRECTION('',(0.,0.,1.));
#308=DIRECTION('',(1.,0.,0.));
#309=DIRECTION('',(0.,0.,1.));
#310=DIRECTION('',(1.,0.,0.));
#311=DIRECTION('',(1.41452285869631E-017,0.,1.));
#312=DIRECTION('',(1.,0.,0.));
#313=DIRECTION('',(1.41452285869631E-017,0.,1.));
#314=DIRECTION('',(1.,0.,-1.38777878078145E-017));
#315=DIRECTION('',(1.41452285869631E-017,0.,1.));
#316=DIRECTION('',(1.,0.,0.));
#317=DIRECTION('',(-1.41452285869631E-017,0.,-1.));
#318=DIRECTION('',(-1.,0.,1.72689971330862E-017));
#319=DIRECTION('',(1.41452285869631E-017,0.,1.));
#320=DIRECTION('',(1.,0.,0.));
#321=DIRECTION('',(-1.41452285869631E-017,0.,-1.));
#322=DIRECTION('',(-1.,0.,-2.62166380098452E-016));
#323=DIRECTION('',(1.41452285869631E-017,0.,1.));
#324=DIRECTION('',(1.,0.,0.));
#325=DIRECTION('',(1.41452285869631E-017,0.,1.));
#326=DIRECTION('',(1.,0.,0.));
#327=DIRECTION('',(1.41452285869631E-017,0.,1.));
#328=DIRECTION('',(1.,0.,0.));
#329=DIRECTION('',(-1.41452285869631E-017,0.,-1.));
#330=DIRECTION('',(-1.,0.,7.11070891725755E-017));
#331=DIRECTION('',(1.41452285869631E-017,0.,1.));
#332=DIRECTION('',(1.,0.,0.));
#333=DIRECTION('',(1.41452285869631E-017,0.,1.));
#334=DIRECTION('',(1.,0.,0.));
#335=DIRECTION('',(1.41452285869631E-017,0.,1.));
#336=DIRECTION('',(1.,0.,-1.41452285869631E-017));
#337=DIRECTION('',(-1.41452285869631E-017,0.,-1.));
#338=DIRECTION('',(-1.,0.,2.34902069772273E-017));
#339=DIRECTION('',(1.41452285869631E-017,0.,1.));
#340=DIRECTION('',(1.,0.,0.));
#341=DIRECTION('',(1.41452285869631E-017,0.,1.));
#342=DIRECTION('',(1.,0.,0.));
#343=DIRECTION('',(1.41452285869631E-017,0.,1.));
#344=DIRECTION('',(1.,0.,0.));
#345=DIRECTION('',(1.41452285869631E-017,0.,1.));
#346=DIRECTION('',(1.,0.,-1.43114686768087E-017));
#347=DIRECTION('',(1.41452285869631E-017,0.,1.));
#348=DIRECTION('',(1.,0.,0.));
#349=DIRECTION('',(1.41452285869631E-017,0.,1.));
#350=DIRECTION('',(1.,0.,0.));
#351=DIRECTION('',(1.41452285869631E-017,0.,1.));
#352=DIRECTION('',(1.,0.,0.));
#353=DIRECTION('',(1.41452285869631E-017,0.,1.));
#354=DIRECTION('',(1.,0.,-1.71712296557962E-017));
#355=DIRECTION('',(1.41452285869631E-017,0.,1.));
#356=DIRECTION('',(1.,0.,0.));
#357=DIRECTION('',(1.41452285869631E-017,0.,1.));
#358=DIRECTION('',(1.,0.,-1.38777878078145E-017));
#359=DIRECTION('',(1.41452285869631E-017,0.,1.));
#360=DIRECTION('',(1.,0.,0.));
#361=DIRECTION('',(-1.41452285869631E-017,0.,-1.));
#362=DIRECTION('',(-1.,0.,3.07484220261771E-017));
#363=DIRECTION('',(1.41452285869631E-017,0.,1.));
#364=DIRECTION('',(1.,0.,0.));
#365=DIRECTION('',(1.41452285869631E-017,0.,1.));
#366=DIRECTION('',(1.,0.,0.));
#367=DIRECTION('',(1.41452285869631E-017,0.,1.));
#368=DIRECTION('',(1.,0.,0.));
#369=DIRECTION('',(1.41452285869631E-017,0.,1.));
#370=DIRECTION('',(1.,0.,0.));
#371=DIRECTION('',(1.41452285869631E-017,0.,1.));
#372=DIRECTION('',(1.,0.,0.));
#373=DIRECTION('',(1.41452285869631E-017,0.,1.));
#374=DIRECTION('',(1.,0.,2.97797947011921E-017));
#375=DIRECTION('',(1.41452285869631E-017,0.,1.));
#376=DIRECTION('',(1.,0.,0.));
#377=DIRECTION('',(-1.41452285869631E-017,0.,-1.));
#378=DIRECTION('',(-1.,0.,1.38777878078145E-017));
#379=DIRECTION('',(1.41452285869631E-017,0.,1.));
#380=DIRECTION('',(1.,0.,0.));
#381=DIRECTION('',(1.41452285869631E-017,0.,1.));
#382=DIRECTION('',(1.,0.,0.));
#383=DIRECTION('',(1.41452285869631E-017,0.,1.));
#384=DIRECTION('',(1.,0.,0.));
#385=DIRECTION('',(1.41452285869631E-017,0.,1.));
#386=DIRECTION('',(1.,0.,3.45390438223355E-018));
#387=DIRECTION('',(-1.41452285869631E-017,0.,-1.));
#388=DIRECTION('',(-1.,0.,1.38777878078145E-017));
#389=CARTESIAN_POINT('',(0.,0.,0.));
#390=CARTESIAN_POINT('',(0.,0.,0.));
#391=CARTESIAN_POINT('',(0.,0.,0.));
#392=CARTESIAN_POINT('',(3.46944695195361E-015,0.,-26.7810889132454));
#393=CARTESIAN_POINT('',(4.1542174678485E-015,0.,21.6289110867546));
#394=CARTESIAN_POINT('',(4.53052519951507,0.,21.6289110867546));
#395=CARTESIAN_POINT('',(-4.51525956004181E-034,0.,21.6289110867546));
#396=CARTESIAN_POINT('',(4.14714485355502E-015,0.,21.1289110867546));
#397=CARTESIAN_POINT('',(5.03052519951507,0.,21.1289110867546));
#398=CARTESIAN_POINT('',(4.1542174678485E-015,0.,21.6289110867546));
#399=CARTESIAN_POINT('',(4.04630477665674E-015,0.,14.));
#400=CARTESIAN_POINT('',(6.03242831416663,0.,14.));
#401=CARTESIAN_POINT('',(4.14714485355502E-015,0.,21.1289110867546));
#402=CARTESIAN_POINT('',(4.03571078148681E-015,0.,13.2510552159131));
#403=CARTESIAN_POINT('',(5.83473736751263,0.,13.2510552159131));
#404=CARTESIAN_POINT('',(4.33680868994202E-015,0.,13.3902283168731));
#405=CARTESIAN_POINT('',(3.94255576193521E-015,0.,6.66544092351092));
#406=CARTESIAN_POINT('',(6.76028509719477,0.,6.66544092351092));
#407=CARTESIAN_POINT('',(4.03571078148681E-015,0.,13.2510552159131));
#408=CARTESIAN_POINT('',(3.93314294796103E-015,0.,6.));
#409=CARTESIAN_POINT('',(7.1567549917857,0.,6.));
#410=CARTESIAN_POINT('',(4.33680868994202E-015,0.,6.80461402447097));
#411=CARTESIAN_POINT('',(3.84827157643925E-015,0.,6.93889390390723E-015));
#412=CARTESIAN_POINT('',(8.,0.,6.82573207521152E-015));
#413=CARTESIAN_POINT('',(3.93314294796103E-015,0.,6.));
#414=CARTESIAN_POINT('',(3.8198242640527E-015,0.,-2.01108891324497));
#415=CARTESIAN_POINT('',(8.,0.,-2.01108891324497));
#416=CARTESIAN_POINT('',(3.46944695195361E-015,0.,-26.7810889132454));
#417=CARTESIAN_POINT('',(3.8198242640527E-015,0.,-2.01108891324497));
#418=CARTESIAN_POINT('',(10.25,0.,-2.01108891324497));
#419=CARTESIAN_POINT('',(-7.96955758473396,0.697245941981262,-2.01108891324497));
#420=CARTESIAN_POINT('',(3.94684841676362E-015,0.,6.96891108675503));
#421=CARTESIAN_POINT('',(10.25,0.,6.96891108675503));
#422=CARTESIAN_POINT('',(3.46944695195361E-015,0.,-26.7810889132454));
#423=CARTESIAN_POINT('',(3.95392103105711E-015,0.,7.46891108675503));
#424=CARTESIAN_POINT('',(10.75,0.,7.46891108675503));
#425=CARTESIAN_POINT('',(3.94684841676362E-015,0.,6.96891108675503));
#426=CARTESIAN_POINT('',(3.95392103105711E-015,0.,7.46891108675504));
#427=CARTESIAN_POINT('',(15.5,0.,7.46891108675504));
#428=CARTESIAN_POINT('',(-10.7090930044863,0.93692423453732,7.46891108675503));
#429=CARTESIAN_POINT('',(3.94684841676362E-015,0.,6.96891108675503));
#430=CARTESIAN_POINT('',(16.,0.,6.96891108675503));
#431=CARTESIAN_POINT('',(3.95392103105711E-015,0.,7.46891108675504));
#432=CARTESIAN_POINT('',(3.75647417721879E-015,0.,-6.48963702891764));
#433=CARTESIAN_POINT('',(16.,0.,-6.48963702891764));
#434=CARTESIAN_POINT('',(3.46944695195361E-015,0.,-26.7810889132454));
#435=CARTESIAN_POINT('',(3.74422404992015E-015,0.,-7.35566243270208));
#436=CARTESIAN_POINT('',(15.5,0.,-7.35566243270208));
#437=CARTESIAN_POINT('',(3.46944695195361E-015,0.,-6.48963702891764));
#438=CARTESIAN_POINT('',(3.69930691649177E-015,0.,-10.531088913245));
#439=CARTESIAN_POINT('',(10.,0.,-10.531088913245));
#440=CARTESIAN_POINT('',(3.74422404992015E-015,0.,-7.35566243270208));
#441=CARTESIAN_POINT('',(3.69930691649177E-015,0.,-10.531088913245));
#442=CARTESIAN_POINT('',(4.5,0.,-10.531088913245));
#443=CARTESIAN_POINT('',(-9.96194698091745,0.871557427476577,-10.531088913245));
#444=CARTESIAN_POINT('',(3.4765195662471E-015,0.,-26.2810889132454));
#445=CARTESIAN_POINT('',(4.5,0.,-26.2810889132454));
#446=CARTESIAN_POINT('',(3.46944695195361E-015,0.,-26.7810889132454));
#447=CARTESIAN_POINT('',(3.46944695195361E-015,0.,-26.7810889132454));
#448=CARTESIAN_POINT('',(4.,0.,-26.7810889132454));
#449=CARTESIAN_POINT('',(3.4765195662471E-015,0.,-26.2810889132454));
#450=CARTESIAN_POINT('',(-3.98477879236697,0.348622970990631,-26.7810889132454));
#451=MECHANICAL_DESIGN_GEOMETRIC_PRESENTATION_REPRESENTATION('',(#244,#245,
#246,#247),#452);
#452=(
GEOMETRIC_REPRESENTATION_CONTEXT(3)
GLOBAL_UNCERTAINTY_ASSIGNED_CONTEXT((#453))
GLOBAL_UNIT_ASSIGNED_CONTEXT((#459,#455,#454))
REPRESENTATION_CONTEXT('1499061771913','TOP_LEVEL_ASSEMBLY_PART')
);
#453=UNCERTAINTY_MEASURE_WITH_UNIT(LENGTH_MEASURE(2.E-005),#459,
'DISTANCE_ACCURACY_VALUE','Maximum Tolerance applied to model');
#454=(
NAMED_UNIT(*)
SI_UNIT($,.STERADIAN.)
SOLID_ANGLE_UNIT()
);
#455=(
CONVERSION_BASED_UNIT('DEGREE',#457)
NAMED_UNIT(#456)
PLANE_ANGLE_UNIT()
);
#456=DIMENSIONAL_EXPONENTS(0.,0.,0.,0.,0.,0.,0.);
#457=PLANE_ANGLE_MEASURE_WITH_UNIT(PLANE_ANGLE_MEASURE(0.0174532925),#458);
#458=(
NAMED_UNIT(*)
PLANE_ANGLE_UNIT()
SI_UNIT($,.RADIAN.)
);
#459=(
LENGTH_UNIT()
NAMED_UNIT(*)
SI_UNIT(.MILLI.,.METRE.)
);
ENDSEC;
END-ISO-10303-21;
