ISO-10303-21;
HEADER;
/* Generated by software containing ST-Developer
 * from STEP Tools, Inc. (www.steptools.com) 
 */
/* OPTION: using custom schema-name function */

FILE_DESCRIPTION(
/* description */ (''),
/* implementation_level */ '2;1');

FILE_NAME(
/* name */ '1497039824709.stp',
/* time_stamp */ '2017-06-09T22:24:18+02:00',
/* author */ (''),
/* organization */ ('SMS'),
/* preprocessor_version */ 'ST-DEVELOPER v15',
/* originating_system */ 'SIEMENS PLM Software NX 8.5',
/* authorisation */ '');

FILE_SCHEMA (('AUTOMOTIVE_DESIGN { 1 0 10303 214 3 1 1 1 }'));
ENDSEC;

DATA;
#10=CONSTRUCTIVE_GEOMETRY_REPRESENTATION_RELATIONSHIP(
'supplemental geometry','',#24,#11);
#11=CONSTRUCTIVE_GEOMETRY_REPRESENTATION('supplemental geometry',(#272,
#273,#274),#472);
#12=SHAPE_REPRESENTATION_RELATIONSHIP('None',
'relationship between 392.ER327-11 09 022-None and 392.ER327-11 09 022
-None',#24,#13);
#13=ADVANCED_BREP_SHAPE_REPRESENTATION('392.ER327-11 09 022-None',(#30),
#472);
#14=SHAPE_DEFINITION_REPRESENTATION(#15,#24);
#15=PRODUCT_DEFINITION_SHAPE('','',#16);
#16=PRODUCT_DEFINITION(' ','',#18,#17);
#17=PRODUCT_DEFINITION_CONTEXT('part definition',#23,'design');
#18=PRODUCT_DEFINITION_FORMATION_WITH_SPECIFIED_SOURCE(' ',' ',#20,
 .NOT_KNOWN.);
#19=PRODUCT_RELATED_PRODUCT_CATEGORY('part','',(#20));
#20=PRODUCT('392.ER327-11 09 022','392.ER327-11 09 022',' ',(#21));
#21=PRODUCT_CONTEXT(' ',#23,'mechanical');
#22=APPLICATION_PROTOCOL_DEFINITION('international standard',
'automotive_design',2010,#23);
#23=APPLICATION_CONTEXT(
'core data for automotive mechanical design processes');
#24=SHAPE_REPRESENTATION('392.ER327-11 09 022-None',(#271),#472);
#25=SURFACE_STYLE_USAGE(.BOTH.,#26);
#26=SURFACE_SIDE_STYLE('',(#27));
#27=SURFACE_STYLE_FILL_AREA(#28);
#28=FILL_AREA_STYLE('',(#29));
#29=FILL_AREA_STYLE_COLOUR('',#267);
#30=MANIFOLD_SOLID_BREP('NOCUT',#31);
#31=CLOSED_SHELL('',(#85,#86,#87,#88,#89,#90,#91,#92,#93,#94,#95,#96,#97,
#98,#99,#100,#101,#102,#103,#104,#105));
#32=CYLINDRICAL_SURFACE('',#292,5.5);
#33=CYLINDRICAL_SURFACE('',#296,6.625);
#34=CYLINDRICAL_SURFACE('',#300,6.125);
#35=CYLINDRICAL_SURFACE('',#308,8.);
#36=CYLINDRICAL_SURFACE('',#314,4.5);
#37=TOROIDAL_SURFACE('',#284,5.07571559457227,0.999999999999996);
#38=TOROIDAL_SURFACE('',#288,5.71681767295891,0.999999999999998);
#39=CONICAL_SURFACE('',#280,3.15442846949556,45.);
#40=CONICAL_SURFACE('',#282,3.65442846949554,7.99999999999963);
#41=CONICAL_SURFACE('',#286,4.0854475258307,7.99999999999968);
#42=CONICAL_SURFACE('',#290,5.00810707854169,7.99999999999962);
#43=CONICAL_SURFACE('',#302,6.125,44.9999999999999);
#44=CONICAL_SURFACE('',#306,7.5,44.9999999999999);
#45=CONICAL_SURFACE('',#310,8.,60.0000000000004);
#46=CONICAL_SURFACE('',#315,4.5,44.9999999999999);
#47=FACE_BOUND('',#116,.T.);
#48=FACE_BOUND('',#117,.T.);
#49=FACE_BOUND('',#118,.T.);
#50=FACE_BOUND('',#119,.T.);
#51=FACE_BOUND('',#120,.T.);
#52=FACE_BOUND('',#121,.T.);
#53=FACE_BOUND('',#122,.T.);
#54=FACE_BOUND('',#123,.T.);
#55=FACE_BOUND('',#124,.T.);
#56=FACE_BOUND('',#125,.T.);
#57=FACE_BOUND('',#126,.T.);
#58=FACE_BOUND('',#127,.T.);
#59=FACE_BOUND('',#128,.T.);
#60=FACE_BOUND('',#129,.T.);
#61=FACE_BOUND('',#130,.T.);
#62=FACE_BOUND('',#131,.T.);
#63=FACE_BOUND('',#132,.T.);
#64=FACE_BOUND('',#133,.T.);
#65=FACE_BOUND('',#134,.T.);
#66=FACE_BOUND('',#135,.T.);
#67=FACE_BOUND('',#136,.T.);
#68=FACE_BOUND('',#137,.T.);
#69=FACE_BOUND('',#138,.T.);
#70=FACE_BOUND('',#139,.T.);
#71=FACE_BOUND('',#140,.T.);
#72=FACE_BOUND('',#141,.T.);
#73=FACE_BOUND('',#142,.T.);
#74=FACE_BOUND('',#143,.T.);
#75=FACE_BOUND('',#144,.T.);
#76=FACE_BOUND('',#145,.T.);
#77=FACE_BOUND('',#146,.T.);
#78=FACE_BOUND('',#147,.T.);
#79=FACE_BOUND('',#148,.T.);
#80=FACE_BOUND('',#149,.T.);
#81=FACE_BOUND('',#150,.T.);
#82=FACE_BOUND('',#151,.T.);
#83=FACE_BOUND('',#152,.T.);
#84=FACE_BOUND('',#153,.T.);
#85=ADVANCED_FACE('',(#112),#106,.F.);
#86=ADVANCED_FACE('',(#113),#107,.F.);
#87=ADVANCED_FACE('',(#47,#48),#39,.T.);
#88=ADVANCED_FACE('',(#49,#50),#40,.T.);
#89=ADVANCED_FACE('',(#51,#52),#37,.F.);
#90=ADVANCED_FACE('',(#53,#54),#41,.T.);
#91=ADVANCED_FACE('',(#55,#56),#38,.F.);
#92=ADVANCED_FACE('',(#57,#58),#42,.T.);
#93=ADVANCED_FACE('',(#59,#60),#32,.T.);
#94=ADVANCED_FACE('',(#61,#62),#108,.F.);
#95=ADVANCED_FACE('',(#63,#64),#33,.F.);
#96=ADVANCED_FACE('',(#65,#66),#109,.F.);
#97=ADVANCED_FACE('',(#67,#68),#34,.F.);
#98=ADVANCED_FACE('',(#69,#70),#43,.F.);
#99=ADVANCED_FACE('',(#71,#72),#110,.F.);
#100=ADVANCED_FACE('',(#73,#74),#44,.T.);
#101=ADVANCED_FACE('',(#75,#76),#35,.T.);
#102=ADVANCED_FACE('',(#77,#78),#45,.T.);
#103=ADVANCED_FACE('',(#79,#80),#111,.F.);
#104=ADVANCED_FACE('',(#81,#82),#36,.T.);
#105=ADVANCED_FACE('',(#83,#84),#46,.T.);
#106=PLANE('',#276);
#107=PLANE('',#278);
#108=PLANE('',#294);
#109=PLANE('',#298);
#110=PLANE('',#304);
#111=PLANE('',#312);
#112=FACE_OUTER_BOUND('',#114,.T.);
#113=FACE_OUTER_BOUND('',#115,.T.);
#114=EDGE_LOOP('',(#154));
#115=EDGE_LOOP('',(#155));
#116=EDGE_LOOP('',(#156));
#117=EDGE_LOOP('',(#157));
#118=EDGE_LOOP('',(#158));
#119=EDGE_LOOP('',(#159));
#120=EDGE_LOOP('',(#160));
#121=EDGE_LOOP('',(#161));
#122=EDGE_LOOP('',(#162));
#123=EDGE_LOOP('',(#163));
#124=EDGE_LOOP('',(#164));
#125=EDGE_LOOP('',(#165));
#126=EDGE_LOOP('',(#166));
#127=EDGE_LOOP('',(#167));
#128=EDGE_LOOP('',(#168));
#129=EDGE_LOOP('',(#169));
#130=EDGE_LOOP('',(#170));
#131=EDGE_LOOP('',(#171));
#132=EDGE_LOOP('',(#172));
#133=EDGE_LOOP('',(#173));
#134=EDGE_LOOP('',(#174));
#135=EDGE_LOOP('',(#175));
#136=EDGE_LOOP('',(#176));
#137=EDGE_LOOP('',(#177));
#138=EDGE_LOOP('',(#178));
#139=EDGE_LOOP('',(#179));
#140=EDGE_LOOP('',(#180));
#141=EDGE_LOOP('',(#181));
#142=EDGE_LOOP('',(#182));
#143=EDGE_LOOP('',(#183));
#144=EDGE_LOOP('',(#184));
#145=EDGE_LOOP('',(#185));
#146=EDGE_LOOP('',(#186));
#147=EDGE_LOOP('',(#187));
#148=EDGE_LOOP('',(#188));
#149=EDGE_LOOP('',(#189));
#150=EDGE_LOOP('',(#190));
#151=EDGE_LOOP('',(#191));
#152=EDGE_LOOP('',(#192));
#153=EDGE_LOOP('',(#193));
#154=ORIENTED_EDGE('',*,*,#214,.T.);
#155=ORIENTED_EDGE('',*,*,#215,.F.);
#156=ORIENTED_EDGE('',*,*,#216,.F.);
#157=ORIENTED_EDGE('',*,*,#215,.T.);
#158=ORIENTED_EDGE('',*,*,#217,.F.);
#159=ORIENTED_EDGE('',*,*,#216,.T.);
#160=ORIENTED_EDGE('',*,*,#218,.F.);
#161=ORIENTED_EDGE('',*,*,#217,.T.);
#162=ORIENTED_EDGE('',*,*,#219,.F.);
#163=ORIENTED_EDGE('',*,*,#218,.T.);
#164=ORIENTED_EDGE('',*,*,#220,.F.);
#165=ORIENTED_EDGE('',*,*,#219,.T.);
#166=ORIENTED_EDGE('',*,*,#221,.F.);
#167=ORIENTED_EDGE('',*,*,#220,.T.);
#168=ORIENTED_EDGE('',*,*,#222,.F.);
#169=ORIENTED_EDGE('',*,*,#221,.T.);
#170=ORIENTED_EDGE('',*,*,#223,.F.);
#171=ORIENTED_EDGE('',*,*,#222,.T.);
#172=ORIENTED_EDGE('',*,*,#224,.F.);
#173=ORIENTED_EDGE('',*,*,#223,.T.);
#174=ORIENTED_EDGE('',*,*,#225,.F.);
#175=ORIENTED_EDGE('',*,*,#224,.T.);
#176=ORIENTED_EDGE('',*,*,#226,.F.);
#177=ORIENTED_EDGE('',*,*,#225,.T.);
#178=ORIENTED_EDGE('',*,*,#227,.F.);
#179=ORIENTED_EDGE('',*,*,#226,.T.);
#180=ORIENTED_EDGE('',*,*,#228,.F.);
#181=ORIENTED_EDGE('',*,*,#227,.T.);
#182=ORIENTED_EDGE('',*,*,#229,.F.);
#183=ORIENTED_EDGE('',*,*,#228,.T.);
#184=ORIENTED_EDGE('',*,*,#230,.F.);
#185=ORIENTED_EDGE('',*,*,#229,.T.);
#186=ORIENTED_EDGE('',*,*,#231,.F.);
#187=ORIENTED_EDGE('',*,*,#230,.T.);
#188=ORIENTED_EDGE('',*,*,#232,.F.);
#189=ORIENTED_EDGE('',*,*,#231,.T.);
#190=ORIENTED_EDGE('',*,*,#233,.F.);
#191=ORIENTED_EDGE('',*,*,#232,.T.);
#192=ORIENTED_EDGE('',*,*,#214,.F.);
#193=ORIENTED_EDGE('',*,*,#233,.T.);
#194=VERTEX_POINT('',#411);
#195=VERTEX_POINT('',#414);
#196=VERTEX_POINT('',#417);
#197=VERTEX_POINT('',#420);
#198=VERTEX_POINT('',#423);
#199=VERTEX_POINT('',#426);
#200=VERTEX_POINT('',#429);
#201=VERTEX_POINT('',#432);
#202=VERTEX_POINT('',#435);
#203=VERTEX_POINT('',#438);
#204=VERTEX_POINT('',#441);
#205=VERTEX_POINT('',#444);
#206=VERTEX_POINT('',#447);
#207=VERTEX_POINT('',#450);
#208=VERTEX_POINT('',#453);
#209=VERTEX_POINT('',#456);
#210=VERTEX_POINT('',#459);
#211=VERTEX_POINT('',#462);
#212=VERTEX_POINT('',#465);
#213=VERTEX_POINT('',#468);
#214=EDGE_CURVE('',#194,#194,#234,.T.);
#215=EDGE_CURVE('',#195,#195,#235,.T.);
#216=EDGE_CURVE('',#196,#196,#236,.T.);
#217=EDGE_CURVE('',#197,#197,#237,.T.);
#218=EDGE_CURVE('',#198,#198,#238,.T.);
#219=EDGE_CURVE('',#199,#199,#239,.T.);
#220=EDGE_CURVE('',#200,#200,#240,.T.);
#221=EDGE_CURVE('',#201,#201,#241,.T.);
#222=EDGE_CURVE('',#202,#202,#242,.T.);
#223=EDGE_CURVE('',#203,#203,#243,.T.);
#224=EDGE_CURVE('',#204,#204,#244,.T.);
#225=EDGE_CURVE('',#205,#205,#245,.T.);
#226=EDGE_CURVE('',#206,#206,#246,.T.);
#227=EDGE_CURVE('',#207,#207,#247,.T.);
#228=EDGE_CURVE('',#208,#208,#248,.T.);
#229=EDGE_CURVE('',#209,#209,#249,.T.);
#230=EDGE_CURVE('',#210,#210,#250,.T.);
#231=EDGE_CURVE('',#211,#211,#251,.T.);
#232=EDGE_CURVE('',#212,#212,#252,.T.);
#233=EDGE_CURVE('',#213,#213,#253,.T.);
#234=CIRCLE('',#275,4.);
#235=CIRCLE('',#277,3.15442846949556);
#236=CIRCLE('',#279,3.65442846949554);
#237=CIRCLE('',#281,4.19999727900299);
#238=CIRCLE('',#283,4.0854475258307);
#239=CIRCLE('',#285,4.72654960421735);
#240=CIRCLE('',#287,5.00810707854169);
#241=CIRCLE('',#289,5.5);
#242=CIRCLE('',#291,5.5);
#243=CIRCLE('',#293,6.625);
#244=CIRCLE('',#295,6.625);
#245=CIRCLE('',#297,6.125);
#246=CIRCLE('',#299,6.125);
#247=CIRCLE('',#301,6.625);
#248=CIRCLE('',#303,7.5);
#249=CIRCLE('',#305,8.);
#250=CIRCLE('',#307,8.);
#251=CIRCLE('',#309,6.5);
#252=CIRCLE('',#311,4.5);
#253=CIRCLE('',#313,4.5);
#254=PRESENTATION_LAYER_ASSIGNMENT('1','Layer 1',(#272,#273,#274,#30));
#255=STYLED_ITEM('',(#259),#272);
#256=STYLED_ITEM('',(#260),#273);
#257=STYLED_ITEM('',(#261),#274);
#258=STYLED_ITEM('',(#262),#30);
#259=PRESENTATION_STYLE_ASSIGNMENT((#263));
#260=PRESENTATION_STYLE_ASSIGNMENT((#264));
#261=PRESENTATION_STYLE_ASSIGNMENT((#265));
#262=PRESENTATION_STYLE_ASSIGNMENT((#25));
#263=CURVE_STYLE('',#268,POSITIVE_LENGTH_MEASURE(0.13),#266);
#264=CURVE_STYLE('',#269,POSITIVE_LENGTH_MEASURE(0.13),#266);
#265=CURVE_STYLE('',#270,POSITIVE_LENGTH_MEASURE(0.13),#266);
#266=COLOUR_RGB('Strong Stone',0.576470588235294,0.54508278019379,0.392156862745098);
#267=COLOUR_RGB('TLS_NOCUT',0.499992370489052,0.499992370489052,0.499992370489052);
#268=DRAUGHTING_PRE_DEFINED_CURVE_FONT('continuous');
#269=DRAUGHTING_PRE_DEFINED_CURVE_FONT('continuous');
#270=DRAUGHTING_PRE_DEFINED_CURVE_FONT('continuous');
#271=AXIS2_PLACEMENT_3D('',#406,#316,#317);
#272=AXIS2_PLACEMENT_3D('CSW',#407,#318,#319);
#273=AXIS2_PLACEMENT_3D('PCS',#408,#320,#321);
#274=AXIS2_PLACEMENT_3D('MCS',#409,#322,#323);
#275=AXIS2_PLACEMENT_3D('',#410,#324,#325);
#276=AXIS2_PLACEMENT_3D('',#412,#326,#327);
#277=AXIS2_PLACEMENT_3D('',#413,#328,#329);
#278=AXIS2_PLACEMENT_3D('',#415,#330,#331);
#279=AXIS2_PLACEMENT_3D('',#416,#332,#333);
#280=AXIS2_PLACEMENT_3D('',#418,#334,#335);
#281=AXIS2_PLACEMENT_3D('',#419,#336,#337);
#282=AXIS2_PLACEMENT_3D('',#421,#338,#339);
#283=AXIS2_PLACEMENT_3D('',#422,#340,#341);
#284=AXIS2_PLACEMENT_3D('',#424,#342,#343);
#285=AXIS2_PLACEMENT_3D('',#425,#344,#345);
#286=AXIS2_PLACEMENT_3D('',#427,#346,#347);
#287=AXIS2_PLACEMENT_3D('',#428,#348,#349);
#288=AXIS2_PLACEMENT_3D('',#430,#350,#351);
#289=AXIS2_PLACEMENT_3D('',#431,#352,#353);
#290=AXIS2_PLACEMENT_3D('',#433,#354,#355);
#291=AXIS2_PLACEMENT_3D('',#434,#356,#357);
#292=AXIS2_PLACEMENT_3D('',#436,#358,#359);
#293=AXIS2_PLACEMENT_3D('',#437,#360,#361);
#294=AXIS2_PLACEMENT_3D('',#439,#362,#363);
#295=AXIS2_PLACEMENT_3D('',#440,#364,#365);
#296=AXIS2_PLACEMENT_3D('',#442,#366,#367);
#297=AXIS2_PLACEMENT_3D('',#443,#368,#369);
#298=AXIS2_PLACEMENT_3D('',#445,#370,#371);
#299=AXIS2_PLACEMENT_3D('',#446,#372,#373);
#300=AXIS2_PLACEMENT_3D('',#448,#374,#375);
#301=AXIS2_PLACEMENT_3D('',#449,#376,#377);
#302=AXIS2_PLACEMENT_3D('',#451,#378,#379);
#303=AXIS2_PLACEMENT_3D('',#452,#380,#381);
#304=AXIS2_PLACEMENT_3D('',#454,#382,#383);
#305=AXIS2_PLACEMENT_3D('',#455,#384,#385);
#306=AXIS2_PLACEMENT_3D('',#457,#386,#387);
#307=AXIS2_PLACEMENT_3D('',#458,#388,#389);
#308=AXIS2_PLACEMENT_3D('',#460,#390,#391);
#309=AXIS2_PLACEMENT_3D('',#461,#392,#393);
#310=AXIS2_PLACEMENT_3D('',#463,#394,#395);
#311=AXIS2_PLACEMENT_3D('',#464,#396,#397);
#312=AXIS2_PLACEMENT_3D('',#466,#398,#399);
#313=AXIS2_PLACEMENT_3D('',#467,#400,#401);
#314=AXIS2_PLACEMENT_3D('',#469,#402,#403);
#315=AXIS2_PLACEMENT_3D('',#470,#404,#405);
#316=DIRECTION('',(0.,0.,1.));
#317=DIRECTION('',(1.,0.,0.));
#318=DIRECTION('',(0.,0.,1.));
#319=DIRECTION('',(1.,0.,0.));
#320=DIRECTION('',(0.,0.,1.));
#321=DIRECTION('',(1.,0.,0.));
#322=DIRECTION('',(0.,0.,1.));
#323=DIRECTION('',(1.,0.,0.));
#324=DIRECTION('',(6.12323399573677E-017,0.,-1.));
#325=DIRECTION('',(-1.,0.,0.));
#326=DIRECTION('',(-6.12323399573677E-017,0.,1.));
#327=DIRECTION('',(1.,0.,6.24500451351651E-017));
#328=DIRECTION('',(6.12323399573677E-017,0.,-1.));
#329=DIRECTION('',(-1.,0.,0.));
#330=DIRECTION('',(6.12323399573677E-017,0.,-1.));
#331=DIRECTION('',(-1.,0.,-6.07153216591882E-017));
#332=DIRECTION('',(6.12323399573677E-017,0.,-1.));
#333=DIRECTION('',(-1.,0.,0.));
#334=DIRECTION('',(6.12323399573677E-017,0.,-1.));
#335=DIRECTION('',(-1.,0.,-7.43585507376057E-017));
#336=DIRECTION('',(6.12323399573677E-017,0.,-1.));
#337=DIRECTION('',(-1.,0.,0.));
#338=DIRECTION('',(6.12323399573677E-017,0.,-1.));
#339=DIRECTION('',(-1.,0.,-2.76698686696161E-016));
#340=DIRECTION('',(6.12323399573677E-017,0.,-1.));
#341=DIRECTION('',(-1.,0.,0.));
#342=DIRECTION('',(6.12323399573677E-017,0.,-1.));
#343=DIRECTION('',(-1.,0.,0.));
#344=DIRECTION('',(6.12323399573677E-017,0.,-1.));
#345=DIRECTION('',(-1.,0.,0.));
#346=DIRECTION('',(6.12323399573677E-017,0.,-1.));
#347=DIRECTION('',(-1.,0.,-2.99863110848597E-016));
#348=DIRECTION('',(6.12323399573677E-017,0.,-1.));
#349=DIRECTION('',(-1.,0.,-8.65957660634695E-017));
#350=DIRECTION('',(6.12323399573677E-017,0.,-1.));
#351=DIRECTION('',(-1.,0.,0.));
#352=DIRECTION('',(6.12323399573677E-017,0.,-1.));
#353=DIRECTION('',(-1.,0.,-6.12323399573677E-017));
#354=DIRECTION('',(6.12323399573677E-017,0.,-1.));
#355=DIRECTION('',(-1.,0.,1.78777336483954E-016));
#356=DIRECTION('',(6.12323399573677E-017,0.,-1.));
#357=DIRECTION('',(-1.,0.,-7.88510670898549E-017));
#358=DIRECTION('',(6.12323399573677E-017,0.,-1.));
#359=DIRECTION('',(-1.,0.,0.));
#360=DIRECTION('',(6.12323399573677E-017,0.,-1.));
#361=DIRECTION('',(-1.,0.,-6.54612632444078E-017));
#362=DIRECTION('',(6.12323399573677E-017,0.,-1.));
#363=DIRECTION('',(-1.,0.,-6.11490025281825E-017));
#364=DIRECTION('',(6.12323399573677E-017,0.,-1.));
#365=DIRECTION('',(-1.,0.,-6.54612632444078E-017));
#366=DIRECTION('',(6.12323399573677E-017,0.,-1.));
#367=DIRECTION('',(-1.,0.,0.));
#368=DIRECTION('',(6.12323399573677E-017,0.,-1.));
#369=DIRECTION('',(-1.,0.,-5.3103779876841E-017));
#370=DIRECTION('',(-6.12323399573677E-017,0.,1.));
#371=DIRECTION('',(1.,0.,6.1257422745431E-017));
#372=DIRECTION('',(6.12323399573677E-017,0.,-1.));
#373=DIRECTION('',(-1.,0.,-7.0805039835788E-017));
#374=DIRECTION('',(6.12323399573677E-017,0.,-1.));
#375=DIRECTION('',(-1.,0.,0.));
#376=DIRECTION('',(6.12323399573677E-017,0.,-1.));
#377=DIRECTION('',(-1.,0.,-6.54612632444078E-017));
#378=DIRECTION('',(-6.12323399573677E-017,0.,1.));
#379=DIRECTION('',(1.,0.,-6.55181931540503E-017));
#380=DIRECTION('',(6.12323399573677E-017,0.,-1.));
#381=DIRECTION('',(-1.,0.,-5.78241158658936E-017));
#382=DIRECTION('',(6.12323399573677E-017,0.,-1.));
#383=DIRECTION('',(-1.,0.,-6.11490025281825E-017));
#384=DIRECTION('',(6.12323399573677E-017,0.,-1.));
#385=DIRECTION('',(-1.,0.,-5.42101086242752E-017));
#386=DIRECTION('',(6.12323399573677E-017,0.,-1.));
#387=DIRECTION('',(-1.,0.,-1.20526693119977E-016));
#388=DIRECTION('',(6.12323399573677E-017,0.,-1.));
#389=DIRECTION('',(-1.,0.,0.));
#390=DIRECTION('',(6.12323399573677E-017,0.,-1.));
#391=DIRECTION('',(-1.,0.,0.));
#392=DIRECTION('',(6.12323399573677E-017,0.,-1.));
#393=DIRECTION('',(-1.,0.,0.));
#394=DIRECTION('',(-6.12323399573677E-017,0.,1.));
#395=DIRECTION('',(1.,0.,6.48009962973608E-017));
#396=DIRECTION('',(6.12323399573677E-017,0.,-1.));
#397=DIRECTION('',(-1.,0.,0.));
#398=DIRECTION('',(-6.12323399573677E-017,0.,1.));
#399=DIRECTION('',(1.,0.,6.07153216591882E-017));
#400=DIRECTION('',(6.12323399573677E-017,0.,-1.));
#401=DIRECTION('',(-1.,0.,0.));
#402=DIRECTION('',(6.12323399573677E-017,0.,-1.));
#403=DIRECTION('',(-1.,0.,0.));
#404=DIRECTION('',(-6.12323399573677E-017,0.,1.));
#405=DIRECTION('',(1.,0.,1.4506398405381E-016));
#406=CARTESIAN_POINT('',(0.,0.,0.));
#407=CARTESIAN_POINT('',(0.,0.,-24.98));
#408=CARTESIAN_POINT('',(0.,0.,0.));
#409=CARTESIAN_POINT('',(0.,0.,0.));
#410=CARTESIAN_POINT('',(2.36418064575396E-015,0.,-24.9780762113536));
#411=CARTESIAN_POINT('',(-4.,0.,-24.9780762113536));
#412=CARTESIAN_POINT('',(2.36418064575396E-015,4.,-24.9780762113536));
#413=CARTESIAN_POINT('',(0.,0.,13.6319237886464));
#414=CARTESIAN_POINT('',(-3.15442846949556,0.,13.6319237886464));
#415=CARTESIAN_POINT('',(1.06221177613038E-031,0.,13.6319237886464));
#416=CARTESIAN_POINT('',(3.06161699786826E-017,0.,13.1319237886464));
#417=CARTESIAN_POINT('',(-3.65442846949554,0.,13.1319237886464));
#418=CARTESIAN_POINT('',(0.,0.,13.6319237886464));
#419=CARTESIAN_POINT('',(2.68315447093689E-016,0.,9.24999999999972));
#420=CARTESIAN_POINT('',(-4.19999727900299,0.,9.24999999999972));
#421=CARTESIAN_POINT('',(3.06161699786826E-017,0.,13.1319237886464));
#422=CARTESIAN_POINT('',(3.06401684640337E-016,0.,8.62800453856276));
#423=CARTESIAN_POINT('',(-4.0854475258307,0.,8.62800453856276));
#424=CARTESIAN_POINT('',(2.9787979000943E-016,0.,8.76717763952281));
#425=CARTESIAN_POINT('',(5.8572392215427E-016,0.,4.06632622105263));
#426=CARTESIAN_POINT('',(-4.72654960421735,0.,4.06632622105263));
#427=CARTESIAN_POINT('',(3.06401684640337E-016,0.,8.62800453856276));
#428=CARTESIAN_POINT('',(6.20401401848554E-016,0.,3.4999999999997));
#429=CARTESIAN_POINT('',(-5.00810707854169,0.,3.4999999999997));
#430=CARTESIAN_POINT('',(5.77202027523362E-016,0.,4.20549932201269));
#431=CARTESIAN_POINT('',(8.34714591699323E-016,0.,0.));
#432=CARTESIAN_POINT('',(-5.49999999999999,0.,-3.36777869765522E-016));
#433=CARTESIAN_POINT('',(6.20401401848554E-016,0.,3.4999999999997));
#434=CARTESIAN_POINT('',(9.36046223353645E-016,0.,-1.65487113059657));
#435=CARTESIAN_POINT('',(-5.5,0.,-1.65487113059657));
#436=CARTESIAN_POINT('',(0.,0.,13.6319237886464));
#437=CARTESIAN_POINT('',(9.36046223353645E-016,0.,-1.65487113059657));
#438=CARTESIAN_POINT('',(-6.625,0.,-1.65487113059657));
#439=CARTESIAN_POINT('',(0.,5.5,-1.65487113059657));
#440=CARTESIAN_POINT('',(8.74813883396278E-016,0.,-0.65487113059657));
#441=CARTESIAN_POINT('',(-6.625,0.,-0.65487113059657));
#442=CARTESIAN_POINT('',(0.,0.,13.6319237886464));
#443=CARTESIAN_POINT('',(8.74813883396278E-016,0.,-0.65487113059657));
#444=CARTESIAN_POINT('',(-6.125,0.,-0.65487113059657));
#445=CARTESIAN_POINT('',(0.,6.625,-0.65487113059657));
#446=CARTESIAN_POINT('',(6.7703342533398E-016,0.,2.57512886940343));
#447=CARTESIAN_POINT('',(-6.125,0.,2.57512886940343));
#448=CARTESIAN_POINT('',(0.,0.,13.6319237886464));
#449=CARTESIAN_POINT('',(6.46417255355296E-016,0.,3.07512886940343));
#450=CARTESIAN_POINT('',(-6.625,0.,3.07512886940343));
#451=CARTESIAN_POINT('',(6.7703342533398E-016,0.,2.57512886940343));
#452=CARTESIAN_POINT('',(6.46417255355296E-016,0.,3.07512886940343));
#453=CARTESIAN_POINT('',(-7.5,0.,3.07512886940343));
#454=CARTESIAN_POINT('',(0.,6.625,3.07512886940343));
#455=CARTESIAN_POINT('',(6.7703342533398E-016,0.,2.57512886940343));
#456=CARTESIAN_POINT('',(-8.,0.,2.57512886940343));
#457=CARTESIAN_POINT('',(6.46417255355296E-016,0.,3.07512886940343));
#458=CARTESIAN_POINT('',(1.32817657290746E-015,0.,-8.05884572681215));
#459=CARTESIAN_POINT('',(-8.,0.,-8.05884572681215));
#460=CARTESIAN_POINT('',(0.,0.,13.6319237886464));
#461=CARTESIAN_POINT('',(1.38120533484371E-015,0.,-8.92487113059657));
#462=CARTESIAN_POINT('',(-6.5,0.,-8.92487113059657));
#463=CARTESIAN_POINT('',(1.32817657290746E-015,0.,-8.05884572681215));
#464=CARTESIAN_POINT('',(1.38120533484371E-015,0.,-8.92487113059657));
#465=CARTESIAN_POINT('',(-4.5,0.,-8.92487113059657));
#466=CARTESIAN_POINT('',(0.,6.5,-8.92487113059657));
#467=CARTESIAN_POINT('',(2.33356447577528E-015,0.,-24.4780762113536));
#468=CARTESIAN_POINT('',(-4.5,0.,-24.4780762113536));
#469=CARTESIAN_POINT('',(0.,0.,13.6319237886464));
#470=CARTESIAN_POINT('',(2.33356447577528E-015,0.,-24.4780762113536));
#471=MECHANICAL_DESIGN_GEOMETRIC_PRESENTATION_REPRESENTATION('',(#255,#256,
#257,#258),#472);
#472=(
GEOMETRIC_REPRESENTATION_CONTEXT(3)
GLOBAL_UNCERTAINTY_ASSIGNED_CONTEXT((#473))
GLOBAL_UNIT_ASSIGNED_CONTEXT((#479,#475,#474))
REPRESENTATION_CONTEXT('1497039824709','TOP_LEVEL_ASSEMBLY_PART')
);
#473=UNCERTAINTY_MEASURE_WITH_UNIT(LENGTH_MEASURE(2.E-005),#479,
'DISTANCE_ACCURACY_VALUE','Maximum Tolerance applied to model');
#474=(
NAMED_UNIT(*)
SI_UNIT($,.STERADIAN.)
SOLID_ANGLE_UNIT()
);
#475=(
CONVERSION_BASED_UNIT('DEGREE',#477)
NAMED_UNIT(#476)
PLANE_ANGLE_UNIT()
);
#476=DIMENSIONAL_EXPONENTS(0.,0.,0.,0.,0.,0.,0.);
#477=PLANE_ANGLE_MEASURE_WITH_UNIT(PLANE_ANGLE_MEASURE(0.0174532925),#478);
#478=(
NAMED_UNIT(*)
PLANE_ANGLE_UNIT()
SI_UNIT($,.RADIAN.)
);
#479=(
LENGTH_UNIT()
NAMED_UNIT(*)
SI_UNIT(.MILLI.,.METRE.)
);
ENDSEC;
END-ISO-10303-21;
