ISO-10303-21;
HEADER;
FILE_DESCRIPTION(
/* description */ ('3-D model version:1'),
/* implementation_level */ '2;1');
FILE_NAME(
/* name */ '392.55EH-4016081',
/* time_stamp */ '2016-12-02T13:57:17',
/* author */ ('InteractiveCad'),
/* organization */ ('AB Sandvik Coromant'),
/* preprocessor_version */ 'ST-DEVELOPER v11',
/* originating_system */ 'SIEMENS UGS NX 6.0',
/* authorization */ '');
FILE_SCHEMA(('AUTOMOTIVE_DESIGN'));
ENDSEC;
DATA;
#10=SHAPE_REPRESENTATION_RELATIONSHIP('None','relationship between 392.55EH_4016081uno_stp-None and 392.55EH_4016081\X\0Duno_stp-None',
     #22,#11);
#11=ADVANCED_BREP_SHAPE_REPRESENTATION('392.55EH_4016081uno_stp-None',(#32),#405);
#12=SHAPE_DEFINITION_REPRESENTATION(#13,#22);
#13=PRODUCT_DEFINITION_SHAPE('','',#14);
#14=PRODUCT_DEFINITION(' ','',#16,#15);
#15=PRODUCT_DEFINITION_CONTEXT('part definition',#21,'design');
#16=PRODUCT_DEFINITION_FORMATION_WITH_SPECIFIED_SOURCE(' ',' ',#18,.NOT_KNOWN.);
#17=PRODUCT_RELATED_PRODUCT_CATEGORY('part','',(#18));
#18=PRODUCT('392.55EH_4016081uno_stp','392.55EH_4016081uno_stp',' ',(#19));
#19=PRODUCT_CONTEXT(' ',#21,'mechanical');
#20=APPLICATION_PROTOCOL_DEFINITION('international standard','automotive_design',
     2001,#21);
#21=APPLICATION_CONTEXT('core data for automotive mechanical design processes');
#22=SHAPE_REPRESENTATION('392.55EH_4016081uno_stp-None',(#234),#405);
#23=PRESENTATION_LAYER_ASSIGNMENT('1','Layer 1',(#32));
#24=STYLED_ITEM('',(#25),#32);
#25=PRESENTATION_STYLE_ASSIGNMENT((#26));
#26=SURFACE_STYLE_USAGE(.BOTH.,#27);
#27=SURFACE_SIDE_STYLE('',(#28));
#28=SURFACE_STYLE_FILL_AREA(#29);
#29=FILL_AREA_STYLE('',(#30));
#30=FILL_AREA_STYLE_COLOUR('',#31);
#31=COLOUR_RGB('TLS_NOCUT',0.499992370489052,0.499992370489052,0.499992370489052);
#32=MANIFOLD_SOLID_BREP('NOCUT',#33);
#33=CLOSED_SHELL('',(#50,#51,#52,#53,#54,#55,#56,#57,#58,#59,#60,#61,#62,#63,#64,
     #65,#66,#67,#68));
#34=CONICAL_SURFACE('',#244,12.8113988195949,8.29791666666675);
#35=CONICAL_SURFACE('',#246,22.2833388353815,30.0000000000052);
#36=CONICAL_SURFACE('',#256,31.4885,60.1250000000008);
#37=CONICAL_SURFACE('',#264,27.1153671315879,60.1249999999999);
#38=CONICAL_SURFACE('',#268,31.4885,75.0000000000001);
#39=CONICAL_SURFACE('',#271,12.0144995872517,8.27860516997824);
#40=TOROIDAL_SURFACE('',#242,11.8218677822405,1.0);
#41=TOROIDAL_SURFACE('',#250,22.6,0.6);
#42=TOROIDAL_SURFACE('',#270,16.9623977080622,5.0);
#43=PLANE('',#238);
#44=PLANE('',#240);
#45=PLANE('',#252);
#46=PLANE('',#258);
#47=PLANE('',#262);
#48=FACE_OUTER_BOUND('',#110,.T.);
#49=FACE_OUTER_BOUND('',#111,.T.);
#50=ADVANCED_FACE('',(#74,#75),#69,.T.);
#51=ADVANCED_FACE('',(#48),#43,.F.);
#52=ADVANCED_FACE('',(#49),#44,.F.);
#53=ADVANCED_FACE('',(#76,#77),#40,.T.);
#54=ADVANCED_FACE('',(#78,#79),#34,.T.);
#55=ADVANCED_FACE('',(#80,#81),#35,.T.);
#56=ADVANCED_FACE('',(#82,#83),#70,.T.);
#57=ADVANCED_FACE('',(#84,#85),#41,.F.);
#58=ADVANCED_FACE('',(#86,#87),#45,.F.);
#59=ADVANCED_FACE('',(#88,#89),#71,.T.);
#60=ADVANCED_FACE('',(#90,#91),#36,.T.);
#61=ADVANCED_FACE('',(#92,#93),#46,.F.);
#62=ADVANCED_FACE('',(#94,#95),#72,.T.);
#63=ADVANCED_FACE('',(#96,#97),#47,.F.);
#64=ADVANCED_FACE('',(#98,#99),#37,.T.);
#65=ADVANCED_FACE('',(#100,#101),#73,.T.);
#66=ADVANCED_FACE('',(#102,#103),#38,.T.);
#67=ADVANCED_FACE('',(#104,#105),#42,.F.);
#68=ADVANCED_FACE('',(#106,#107),#39,.T.);
#69=CYLINDRICAL_SURFACE('',#237,7.7);
#70=CYLINDRICAL_SURFACE('',#248,22.0);
#71=CYLINDRICAL_SURFACE('',#254,31.4885);
#72=CYLINDRICAL_SURFACE('',#260,26.5);
#73=CYLINDRICAL_SURFACE('',#266,31.4884999999999);
#74=FACE_BOUND('',#108,.T.);
#75=FACE_BOUND('',#109,.T.);
#76=FACE_BOUND('',#112,.T.);
#77=FACE_BOUND('',#113,.T.);
#78=FACE_BOUND('',#114,.T.);
#79=FACE_BOUND('',#115,.T.);
#80=FACE_BOUND('',#116,.T.);
#81=FACE_BOUND('',#117,.T.);
#82=FACE_BOUND('',#118,.T.);
#83=FACE_BOUND('',#119,.T.);
#84=FACE_BOUND('',#120,.T.);
#85=FACE_BOUND('',#121,.T.);
#86=FACE_BOUND('',#122,.T.);
#87=FACE_BOUND('',#123,.T.);
#88=FACE_BOUND('',#124,.T.);
#89=FACE_BOUND('',#125,.T.);
#90=FACE_BOUND('',#126,.T.);
#91=FACE_BOUND('',#127,.T.);
#92=FACE_BOUND('',#128,.T.);
#93=FACE_BOUND('',#129,.T.);
#94=FACE_BOUND('',#130,.T.);
#95=FACE_BOUND('',#131,.T.);
#96=FACE_BOUND('',#132,.T.);
#97=FACE_BOUND('',#133,.T.);
#98=FACE_BOUND('',#134,.T.);
#99=FACE_BOUND('',#135,.T.);
#100=FACE_BOUND('',#136,.T.);
#101=FACE_BOUND('',#137,.T.);
#102=FACE_BOUND('',#138,.T.);
#103=FACE_BOUND('',#139,.T.);
#104=FACE_BOUND('',#140,.T.);
#105=FACE_BOUND('',#141,.T.);
#106=FACE_BOUND('',#142,.T.);
#107=FACE_BOUND('',#143,.T.);
#108=EDGE_LOOP('',(#144));
#109=EDGE_LOOP('',(#145));
#110=EDGE_LOOP('',(#146));
#111=EDGE_LOOP('',(#147));
#112=EDGE_LOOP('',(#148));
#113=EDGE_LOOP('',(#149));
#114=EDGE_LOOP('',(#150));
#115=EDGE_LOOP('',(#151));
#116=EDGE_LOOP('',(#152));
#117=EDGE_LOOP('',(#153));
#118=EDGE_LOOP('',(#154));
#119=EDGE_LOOP('',(#155));
#120=EDGE_LOOP('',(#156));
#121=EDGE_LOOP('',(#157));
#122=EDGE_LOOP('',(#158));
#123=EDGE_LOOP('',(#159));
#124=EDGE_LOOP('',(#160));
#125=EDGE_LOOP('',(#161));
#126=EDGE_LOOP('',(#162));
#127=EDGE_LOOP('',(#163));
#128=EDGE_LOOP('',(#164));
#129=EDGE_LOOP('',(#165));
#130=EDGE_LOOP('',(#166));
#131=EDGE_LOOP('',(#167));
#132=EDGE_LOOP('',(#168));
#133=EDGE_LOOP('',(#169));
#134=EDGE_LOOP('',(#170));
#135=EDGE_LOOP('',(#171));
#136=EDGE_LOOP('',(#172));
#137=EDGE_LOOP('',(#173));
#138=EDGE_LOOP('',(#174));
#139=EDGE_LOOP('',(#175));
#140=EDGE_LOOP('',(#176));
#141=EDGE_LOOP('',(#177));
#142=EDGE_LOOP('',(#178));
#143=EDGE_LOOP('',(#179));
#144=ORIENTED_EDGE('',*,*,#198,.F.);
#145=ORIENTED_EDGE('',*,*,#199,.T.);
#146=ORIENTED_EDGE('',*,*,#198,.T.);
#147=ORIENTED_EDGE('',*,*,#200,.F.);
#148=ORIENTED_EDGE('',*,*,#201,.F.);
#149=ORIENTED_EDGE('',*,*,#200,.T.);
#150=ORIENTED_EDGE('',*,*,#202,.F.);
#151=ORIENTED_EDGE('',*,*,#201,.T.);
#152=ORIENTED_EDGE('',*,*,#203,.F.);
#153=ORIENTED_EDGE('',*,*,#202,.T.);
#154=ORIENTED_EDGE('',*,*,#204,.F.);
#155=ORIENTED_EDGE('',*,*,#203,.T.);
#156=ORIENTED_EDGE('',*,*,#205,.F.);
#157=ORIENTED_EDGE('',*,*,#204,.T.);
#158=ORIENTED_EDGE('',*,*,#206,.F.);
#159=ORIENTED_EDGE('',*,*,#205,.T.);
#160=ORIENTED_EDGE('',*,*,#207,.F.);
#161=ORIENTED_EDGE('',*,*,#206,.T.);
#162=ORIENTED_EDGE('',*,*,#208,.F.);
#163=ORIENTED_EDGE('',*,*,#207,.T.);
#164=ORIENTED_EDGE('',*,*,#209,.F.);
#165=ORIENTED_EDGE('',*,*,#208,.T.);
#166=ORIENTED_EDGE('',*,*,#210,.F.);
#167=ORIENTED_EDGE('',*,*,#209,.T.);
#168=ORIENTED_EDGE('',*,*,#211,.F.);
#169=ORIENTED_EDGE('',*,*,#210,.T.);
#170=ORIENTED_EDGE('',*,*,#212,.F.);
#171=ORIENTED_EDGE('',*,*,#211,.T.);
#172=ORIENTED_EDGE('',*,*,#213,.F.);
#173=ORIENTED_EDGE('',*,*,#212,.T.);
#174=ORIENTED_EDGE('',*,*,#214,.F.);
#175=ORIENTED_EDGE('',*,*,#213,.T.);
#176=ORIENTED_EDGE('',*,*,#215,.F.);
#177=ORIENTED_EDGE('',*,*,#214,.T.);
#178=ORIENTED_EDGE('',*,*,#199,.F.);
#179=ORIENTED_EDGE('',*,*,#215,.T.);
#180=VERTEX_POINT('',#350);
#181=VERTEX_POINT('',#352);
#182=VERTEX_POINT('',#356);
#183=VERTEX_POINT('',#359);
#184=VERTEX_POINT('',#362);
#185=VERTEX_POINT('',#365);
#186=VERTEX_POINT('',#368);
#187=VERTEX_POINT('',#371);
#188=VERTEX_POINT('',#374);
#189=VERTEX_POINT('',#377);
#190=VERTEX_POINT('',#380);
#191=VERTEX_POINT('',#383);
#192=VERTEX_POINT('',#386);
#193=VERTEX_POINT('',#389);
#194=VERTEX_POINT('',#392);
#195=VERTEX_POINT('',#395);
#196=VERTEX_POINT('',#398);
#197=VERTEX_POINT('',#401);
#198=EDGE_CURVE('',#180,#180,#216,.T.);
#199=EDGE_CURVE('',#181,#181,#217,.T.);
#200=EDGE_CURVE('',#182,#182,#218,.T.);
#201=EDGE_CURVE('',#183,#183,#219,.T.);
#202=EDGE_CURVE('',#184,#184,#220,.T.);
#203=EDGE_CURVE('',#185,#185,#221,.T.);
#204=EDGE_CURVE('',#186,#186,#222,.T.);
#205=EDGE_CURVE('',#187,#187,#223,.T.);
#206=EDGE_CURVE('',#188,#188,#224,.T.);
#207=EDGE_CURVE('',#189,#189,#225,.T.);
#208=EDGE_CURVE('',#190,#190,#226,.T.);
#209=EDGE_CURVE('',#191,#191,#227,.T.);
#210=EDGE_CURVE('',#192,#192,#228,.T.);
#211=EDGE_CURVE('',#193,#193,#229,.T.);
#212=EDGE_CURVE('',#194,#194,#230,.T.);
#213=EDGE_CURVE('',#195,#195,#231,.T.);
#214=EDGE_CURVE('',#196,#196,#232,.T.);
#215=EDGE_CURVE('',#197,#197,#233,.T.);
#216=CIRCLE('',#235,7.7);
#217=CIRCLE('',#236,7.7);
#218=CIRCLE('',#239,11.8218677822405);
#219=CIRCLE('',#241,12.8113988195949);
#220=CIRCLE('',#243,22.2833388353815);
#221=CIRCLE('',#245,22.0);
#222=CIRCLE('',#247,22.0);
#223=CIRCLE('',#249,22.6);
#224=CIRCLE('',#251,31.4885);
#225=CIRCLE('',#253,31.4885);
#226=CIRCLE('',#255,27.1153671315879);
#227=CIRCLE('',#257,26.5);
#228=CIRCLE('',#259,26.5);
#229=CIRCLE('',#261,27.1153671315879);
#230=CIRCLE('',#263,31.4884999999998);
#231=CIRCLE('',#265,31.4885);
#232=CIRCLE('',#267,15.6683024825495);
#233=CIRCLE('',#269,12.0144995872517);
#234=AXIS2_PLACEMENT_3D('',#348,#272,#273);
#235=AXIS2_PLACEMENT_3D('',#349,#274,#275);
#236=AXIS2_PLACEMENT_3D('',#351,#276,#277);
#237=AXIS2_PLACEMENT_3D('',#353,#278,#279);
#238=AXIS2_PLACEMENT_3D('',#354,#280,#281);
#239=AXIS2_PLACEMENT_3D('',#355,#282,#283);
#240=AXIS2_PLACEMENT_3D('',#357,#284,#285);
#241=AXIS2_PLACEMENT_3D('',#358,#286,#287);
#242=AXIS2_PLACEMENT_3D('',#360,#288,#289);
#243=AXIS2_PLACEMENT_3D('',#361,#290,#291);
#244=AXIS2_PLACEMENT_3D('',#363,#292,#293);
#245=AXIS2_PLACEMENT_3D('',#364,#294,#295);
#246=AXIS2_PLACEMENT_3D('',#366,#296,#297);
#247=AXIS2_PLACEMENT_3D('',#367,#298,#299);
#248=AXIS2_PLACEMENT_3D('',#369,#300,#301);
#249=AXIS2_PLACEMENT_3D('',#370,#302,#303);
#250=AXIS2_PLACEMENT_3D('',#372,#304,#305);
#251=AXIS2_PLACEMENT_3D('',#373,#306,#307);
#252=AXIS2_PLACEMENT_3D('',#375,#308,#309);
#253=AXIS2_PLACEMENT_3D('',#376,#310,#311);
#254=AXIS2_PLACEMENT_3D('',#378,#312,#313);
#255=AXIS2_PLACEMENT_3D('',#379,#314,#315);
#256=AXIS2_PLACEMENT_3D('',#381,#316,#317);
#257=AXIS2_PLACEMENT_3D('',#382,#318,#319);
#258=AXIS2_PLACEMENT_3D('',#384,#320,#321);
#259=AXIS2_PLACEMENT_3D('',#385,#322,#323);
#260=AXIS2_PLACEMENT_3D('',#387,#324,#325);
#261=AXIS2_PLACEMENT_3D('',#388,#326,#327);
#262=AXIS2_PLACEMENT_3D('',#390,#328,#329);
#263=AXIS2_PLACEMENT_3D('',#391,#330,#331);
#264=AXIS2_PLACEMENT_3D('',#393,#332,#333);
#265=AXIS2_PLACEMENT_3D('',#394,#334,#335);
#266=AXIS2_PLACEMENT_3D('',#396,#336,#337);
#267=AXIS2_PLACEMENT_3D('',#397,#338,#339);
#268=AXIS2_PLACEMENT_3D('',#399,#340,#341);
#269=AXIS2_PLACEMENT_3D('',#400,#342,#343);
#270=AXIS2_PLACEMENT_3D('',#402,#344,#345);
#271=AXIS2_PLACEMENT_3D('',#403,#346,#347);
#272=DIRECTION('',(0.0,0.0,1.0));
#273=DIRECTION('',(1.0,0.0,0.0));
#274=DIRECTION('',(0.0,0.0,-1.0));
#275=DIRECTION('',(-1.0,0.0,0.0));
#276=DIRECTION('',(0.0,0.0,-1.0));
#277=DIRECTION('',(-1.0,0.0,0.0));
#278=DIRECTION('',(0.0,0.0,-1.0));
#279=DIRECTION('',(-1.0,0.0,0.0));
#280=DIRECTION('',(0.0,0.0,1.0));
#281=DIRECTION('',(1.0,0.0,0.0));
#282=DIRECTION('',(0.0,0.0,-1.0));
#283=DIRECTION('',(-1.0,0.0,0.0));
#284=DIRECTION('',(0.0,0.0,-1.0));
#285=DIRECTION('',(-1.0,0.0,0.0));
#286=DIRECTION('',(0.0,0.0,-1.0));
#287=DIRECTION('',(-1.0,0.0,0.0));
#288=DIRECTION('',(0.0,0.0,-1.0));
#289=DIRECTION('',(-1.0,0.0,0.0));
#290=DIRECTION('',(0.0,0.0,-1.0));
#291=DIRECTION('',(-1.0,0.0,0.0));
#292=DIRECTION('',(0.0,0.0,-1.0));
#293=DIRECTION('',(-1.0,0.0,2.62408675003797E-16));
#294=DIRECTION('',(0.0,0.0,-1.0));
#295=DIRECTION('',(-1.0,0.0,0.0));
#296=DIRECTION('',(0.0,0.0,1.0));
#297=DIRECTION('',(1.0,0.0,8.29921456220301E-17));
#298=DIRECTION('',(0.0,0.0,-1.0));
#299=DIRECTION('',(-1.0,0.0,0.0));
#300=DIRECTION('',(0.0,0.0,-1.0));
#301=DIRECTION('',(-1.0,0.0,0.0));
#302=DIRECTION('',(0.0,0.0,-1.0));
#303=DIRECTION('',(-1.0,0.0,0.0));
#304=DIRECTION('',(0.0,0.0,-1.0));
#305=DIRECTION('',(-1.0,0.0,0.0));
#306=DIRECTION('',(0.0,0.0,-1.0));
#307=DIRECTION('',(-1.0,0.0,0.0));
#308=DIRECTION('',(0.0,0.0,-1.0));
#309=DIRECTION('',(-1.0,0.0,0.0));
#310=DIRECTION('',(0.0,0.0,-1.0));
#311=DIRECTION('',(-1.0,0.0,0.0));
#312=DIRECTION('',(0.0,0.0,-1.0));
#313=DIRECTION('',(-1.0,0.0,0.0));
#314=DIRECTION('',(0.0,0.0,-1.0));
#315=DIRECTION('',(-1.0,0.0,0.0));
#316=DIRECTION('',(0.0,0.0,1.0));
#317=DIRECTION('',(1.0,0.0,2.34911613731574E-17));
#318=DIRECTION('',(0.0,0.0,-1.0));
#319=DIRECTION('',(-1.0,0.0,0.0));
#320=DIRECTION('',(0.0,0.0,1.0));
#321=DIRECTION('',(1.0,0.0,0.0));
#322=DIRECTION('',(0.0,0.0,-1.0));
#323=DIRECTION('',(-1.0,0.0,0.0));
#324=DIRECTION('',(0.0,0.0,-1.0));
#325=DIRECTION('',(-1.0,0.0,0.0));
#326=DIRECTION('',(0.0,0.0,-1.0));
#327=DIRECTION('',(-1.0,0.0,0.0));
#328=DIRECTION('',(0.0,0.0,-1.0));
#329=DIRECTION('',(-1.0,0.0,0.0));
#330=DIRECTION('',(0.0,0.0,-1.0));
#331=DIRECTION('',(-1.0,0.0,0.0));
#332=DIRECTION('',(0.0,0.0,-1.0));
#333=DIRECTION('',(-1.0,0.0,6.08356115677818E-17));
#334=DIRECTION('',(0.0,0.0,-1.0));
#335=DIRECTION('',(-1.0,0.0,0.0));
#336=DIRECTION('',(0.0,0.0,-1.0));
#337=DIRECTION('',(-1.0,0.0,0.0));
#338=DIRECTION('',(0.0,0.0,-1.0));
#339=DIRECTION('',(-1.0,0.0,0.0));
#340=DIRECTION('',(0.0,0.0,1.0));
#341=DIRECTION('',(1.0,0.0,1.1062290046955E-17));
#342=DIRECTION('',(0.0,0.0,-1.0));
#343=DIRECTION('',(-1.0,0.0,0.0));
#344=DIRECTION('',(0.0,0.0,-1.0));
#345=DIRECTION('',(-1.0,0.0,0.0));
#346=DIRECTION('',(0.0,0.0,1.0));
#347=DIRECTION('',(1.0,0.0,-3.52412851390993E-16));
#348=CARTESIAN_POINT('',(0.0,0.0,0.0));
#349=CARTESIAN_POINT('',(0.0,0.0,-81.001));
#350=CARTESIAN_POINT('',(-7.7,0.0,-81.001));
#351=CARTESIAN_POINT('',(0.0,0.0,-65.001));
#352=CARTESIAN_POINT('',(-7.7,0.0,-65.001));
#353=CARTESIAN_POINT('',(0.0,0.0,0.0));
#354=CARTESIAN_POINT('',(0.0,7.7,-81.001));
#355=CARTESIAN_POINT('',(0.0,0.0,65.4));
#356=CARTESIAN_POINT('',(-11.8218677822405,0.0,65.4));
#357=CARTESIAN_POINT('',(0.0,10.00675,65.4));
#358=CARTESIAN_POINT('',(0.0,0.0,64.5443202207325));
#359=CARTESIAN_POINT('',(-12.8113988195949,0.0,64.5443202207325));
#360=CARTESIAN_POINT('',(0.0,0.0,64.4));
#361=CARTESIAN_POINT('',(0.0,0.0,-0.400000000000006));
#362=CARTESIAN_POINT('',(-22.2833388353815,0.0,-0.400000000000006));
#363=CARTESIAN_POINT('',(0.0,0.0,64.5443202207325));
#364=CARTESIAN_POINT('',(0.0,0.0,-0.890757258637992));
#365=CARTESIAN_POINT('',(-22.0,0.0,-0.890757258637992));
#366=CARTESIAN_POINT('',(0.0,0.0,-0.400000000000006));
#367=CARTESIAN_POINT('',(0.0,0.0,-1.4));
#368=CARTESIAN_POINT('',(-22.0,0.0,-1.4));
#369=CARTESIAN_POINT('',(0.0,0.0,0.0));
#370=CARTESIAN_POINT('',(0.0,0.0,-2.0));
#371=CARTESIAN_POINT('',(-22.6,0.0,-2.0));
#372=CARTESIAN_POINT('',(0.0,0.0,-1.4));
#373=CARTESIAN_POINT('',(0.0,0.0,-2.0));
#374=CARTESIAN_POINT('',(-31.4885,0.0,-2.0));
#375=CARTESIAN_POINT('',(0.0,22.6,-2.0));
#376=CARTESIAN_POINT('',(0.0,0.0,-11.5878755063094));
#377=CARTESIAN_POINT('',(-31.4885,0.0,-11.5878755063094));
#378=CARTESIAN_POINT('',(0.0,0.0,0.0));
#379=CARTESIAN_POINT('',(0.0,0.0,-14.1));
#380=CARTESIAN_POINT('',(-27.1153671315879,0.0,-14.1));
#381=CARTESIAN_POINT('',(0.0,0.0,-11.5878755063094));
#382=CARTESIAN_POINT('',(0.0,0.0,-14.1));
#383=CARTESIAN_POINT('',(-26.5,0.0,-14.1));
#384=CARTESIAN_POINT('',(0.0,27.1153671315879,-14.1));
#385=CARTESIAN_POINT('',(0.0,0.0,-19.1));
#386=CARTESIAN_POINT('',(-26.5,0.0,-19.1));
#387=CARTESIAN_POINT('',(0.0,0.0,0.0));
#388=CARTESIAN_POINT('',(0.0,0.0,-19.1));
#389=CARTESIAN_POINT('',(-27.1153671315879,0.0,-19.1));
#390=CARTESIAN_POINT('',(0.0,26.5,-19.1));
#391=CARTESIAN_POINT('',(0.0,0.0,-21.6121244936906));
#392=CARTESIAN_POINT('',(-31.4884999999998,0.0,-21.6121244936906));
#393=CARTESIAN_POINT('',(0.0,0.0,-19.1));
#394=CARTESIAN_POINT('',(0.0,0.0,-26.9999653438087));
#395=CARTESIAN_POINT('',(-31.4885,0.0,-26.9999653438087));
#396=CARTESIAN_POINT('',(0.0,0.0,0.0));
#397=CARTESIAN_POINT('',(0.0,0.0,-31.2389744927104));
#398=CARTESIAN_POINT('',(-15.6683024825495,0.0,-31.2389744927104));
#399=CARTESIAN_POINT('',(0.0,0.0,-26.9999653438087));
#400=CARTESIAN_POINT('',(0.0,0.0,-35.3486701646752));
#401=CARTESIAN_POINT('',(-12.0144995872517,0.0,-35.3486701646752));
#402=CARTESIAN_POINT('',(0.0,0.0,-36.0686036241557));
#403=CARTESIAN_POINT('',(0.0,0.0,-35.3486701646752));
#404=MECHANICAL_DESIGN_GEOMETRIC_PRESENTATION_REPRESENTATION('',(#24),#405);
#405=(GEOMETRIC_REPRESENTATION_CONTEXT(3)GLOBAL_UNCERTAINTY_ASSIGNED_CONTEXT((#406))
     GLOBAL_UNIT_ASSIGNED_CONTEXT((#412,#408,#407))REPRESENTATION_CONTEXT('392','TOP_LEVEL_ASSEMBLY_PART'));
#406=UNCERTAINTY_MEASURE_WITH_UNIT(LENGTH_MEASURE(2.0E-5),#412,'DISTANCE_ACCURACY_VALUE',
     'Maximum Tolerance applied to model');
#407=(NAMED_UNIT(*)SI_UNIT($,.STERADIAN.)SOLID_ANGLE_UNIT());
#408=(CONVERSION_BASED_UNIT('DEGREE',#410)NAMED_UNIT(*)PLANE_ANGLE_UNIT());
#409=DIMENSIONAL_EXPONENTS(0.0,0.0,0.0,0.0,0.0,0.0,0.0);
#410=PLANE_ANGLE_MEASURE_WITH_UNIT(PLANE_ANGLE_MEASURE(0.0174532925),#411);
#411=(NAMED_UNIT(*)PLANE_ANGLE_UNIT()SI_UNIT($,.RADIAN.));
#412=(LENGTH_UNIT()NAMED_UNIT(*)SI_UNIT(.MILLI.,.METRE.));
#413=CARTESIAN_POINT('',(0.0,0.0,0.0));
#414=DIRECTION('',(0.0,0.0,1.0));
#415=DIRECTION('',(1.0,0.0,0.0));
#416=AXIS2_PLACEMENT_3D('PCS',#413,#414,#415);
#417=CARTESIAN_POINT('',(0.0,0.0,0.0));
#418=DIRECTION('',(0.0,0.0,1.0));
#419=DIRECTION('',(1.0,0.0,0.0));
#420=AXIS2_PLACEMENT_3D('MCS',#417,#418,#419);
#421=CARTESIAN_POINT('',(0.0,0.0,-81.0));
#422=DIRECTION('',(0.0,0.0,1.0));
#423=DIRECTION('',(1.0,0.0,0.0));
#424=AXIS2_PLACEMENT_3D('CSW',#421,#422,#423);
#425=CONSTRUCTIVE_GEOMETRY_REPRESENTATION('supplemental geometry',(#416,#420,#424),
     #405);
#426=CONSTRUCTIVE_GEOMETRY_REPRESENTATION_RELATIONSHIP('supplemental geometry',$,
     #22,#425);
ENDSEC;
END-ISO-10303-21;
