ISO-10303-21;
HEADER;
FILE_DESCRIPTION(
/* description */ ('3-D model version:1'),
/* implementation_level */ '2;1');
FILE_NAME(
/* name */ '392.55EH-3020086',
/* time_stamp */ '2016-12-02T13:57:19',
/* author */ ('InteractiveCad'),
/* organization */ ('AB Sandvik Coromant'),
/* preprocessor_version */ 'ST-DEVELOPER v11',
/* originating_system */ 'SIEMENS UGS NX 6.0',
/* authorization */ '');
FILE_SCHEMA(('AUTOMOTIVE_DESIGN'));
ENDSEC;
DATA;
#10=SHAPE_REPRESENTATION_RELATIONSHIP('None','relationship between 392.55EH_3020086uu_stp-None and 392.55EH_3020086u\X\0Du_stp-None',
     #22,#11);
#11=ADVANCED_BREP_SHAPE_REPRESENTATION('392.55EH_3020086uu_stp-None',(#32),#419);
#12=SHAPE_DEFINITION_REPRESENTATION(#13,#22);
#13=PRODUCT_DEFINITION_SHAPE('','',#14);
#14=PRODUCT_DEFINITION(' ','',#16,#15);
#15=PRODUCT_DEFINITION_CONTEXT('part definition',#21,'design');
#16=PRODUCT_DEFINITION_FORMATION_WITH_SPECIFIED_SOURCE(' ',' ',#18,.NOT_KNOWN.);
#17=PRODUCT_RELATED_PRODUCT_CATEGORY('part','',(#18));
#18=PRODUCT('392.55EH_3020086uu_stp','392.55EH_3020086uu_stp',' ',(#19));
#19=PRODUCT_CONTEXT(' ',#21,'mechanical');
#20=APPLICATION_PROTOCOL_DEFINITION('international standard','automotive_design',
     2001,#21);
#21=APPLICATION_CONTEXT('core data for automotive mechanical design processes');
#22=SHAPE_REPRESENTATION('392.55EH_3020086uu_stp-None',(#234),#419);
#23=PRESENTATION_LAYER_ASSIGNMENT('1','Layer 1',(#32));
#24=STYLED_ITEM('',(#25),#32);
#25=PRESENTATION_STYLE_ASSIGNMENT((#26));
#26=SURFACE_STYLE_USAGE(.BOTH.,#27);
#27=SURFACE_SIDE_STYLE('',(#28));
#28=SURFACE_STYLE_FILL_AREA(#29);
#29=FILL_AREA_STYLE('',(#30));
#30=FILL_AREA_STYLE_COLOUR('',#31);
#31=COLOUR_RGB('TLS_NOCUT',0.499992370489052,0.499992370489052,0.499992370489052);
#32=MANIFOLD_SOLID_BREP('NOCUT',#33);
#33=CLOSED_SHELL('',(#83,#84,#85,#86,#87,#88,#89,#90,#91,#92,#93,#94,#95,#96,#97,
     #98,#99,#100,#101));
#34=B_SPLINE_CURVE_WITH_KNOTS('',3,(#358,#359,#360,#361,#362,#363,#364,#365,#366,
     #367,#368,#369,#370,#371,#372,#373,#374,#375),.UNSPECIFIED.,.T.,.F.,(2,2,2,
     2,2,2,2,2,2,2,2),(-0.125,0.0,0.125,0.25,0.375,0.5,0.625,0.75,0.875,1.0,1.125),
     .UNSPECIFIED.);
#35=TOROIDAL_SURFACE('',#242,19.9705593691155,5.0);
#36=TOROIDAL_SURFACE('',#261,16.25,0.6);
#37=TOROIDAL_SURFACE('',#269,8.38423030848271,0.5);
#38=CONICAL_SURFACE('',#240,9.6,7.96974423819771);
#39=CONICAL_SURFACE('',#243,18.6767719621326,75.0036517404416);
#40=CONICAL_SURFACE('',#247,22.99025,60.1249999999999);
#41=CONICAL_SURFACE('',#255,19.480757323931,60.1250000000001);
#42=CONICAL_SURFACE('',#265,15.65,30.0000000000062);
#43=CONICAL_SURFACE('',#267,15.9332467051706,8.29722000000023);
#44=CYLINDRICAL_SURFACE('',#238,9.6);
#45=CYLINDRICAL_SURFACE('',#245,22.99025);
#46=CYLINDRICAL_SURFACE('',#251,19.0);
#47=CYLINDRICAL_SURFACE('',#257,22.99025);
#48=CYLINDRICAL_SURFACE('',#263,15.65);
#49=FACE_BOUND('',#110,.T.);
#50=FACE_BOUND('',#111,.T.);
#51=FACE_BOUND('',#112,.T.);
#52=FACE_BOUND('',#113,.T.);
#53=FACE_BOUND('',#114,.T.);
#54=FACE_BOUND('',#115,.T.);
#55=FACE_BOUND('',#116,.T.);
#56=FACE_BOUND('',#117,.T.);
#57=FACE_BOUND('',#118,.T.);
#58=FACE_BOUND('',#119,.T.);
#59=FACE_BOUND('',#120,.T.);
#60=FACE_BOUND('',#121,.T.);
#61=FACE_BOUND('',#122,.T.);
#62=FACE_BOUND('',#123,.T.);
#63=FACE_BOUND('',#124,.T.);
#64=FACE_BOUND('',#125,.T.);
#65=FACE_BOUND('',#126,.T.);
#66=FACE_BOUND('',#127,.T.);
#67=FACE_BOUND('',#128,.T.);
#68=FACE_BOUND('',#129,.T.);
#69=FACE_BOUND('',#130,.T.);
#70=FACE_BOUND('',#131,.T.);
#71=FACE_BOUND('',#132,.T.);
#72=FACE_BOUND('',#133,.T.);
#73=FACE_BOUND('',#134,.T.);
#74=FACE_BOUND('',#135,.T.);
#75=FACE_BOUND('',#136,.T.);
#76=FACE_BOUND('',#137,.T.);
#77=FACE_BOUND('',#138,.T.);
#78=FACE_BOUND('',#139,.T.);
#79=FACE_BOUND('',#140,.T.);
#80=FACE_BOUND('',#141,.T.);
#81=FACE_BOUND('',#142,.T.);
#82=FACE_BOUND('',#143,.T.);
#83=ADVANCED_FACE('',(#107),#102,.F.);
#84=ADVANCED_FACE('',(#49,#50),#44,.T.);
#85=ADVANCED_FACE('',(#51,#52),#38,.T.);
#86=ADVANCED_FACE('',(#53,#54),#35,.F.);
#87=ADVANCED_FACE('',(#55,#56),#39,.T.);
#88=ADVANCED_FACE('',(#57,#58),#45,.T.);
#89=ADVANCED_FACE('',(#59,#60),#40,.T.);
#90=ADVANCED_FACE('',(#61,#62),#103,.F.);
#91=ADVANCED_FACE('',(#63,#64),#46,.T.);
#92=ADVANCED_FACE('',(#65,#66),#104,.F.);
#93=ADVANCED_FACE('',(#67,#68),#41,.T.);
#94=ADVANCED_FACE('',(#69,#70),#47,.T.);
#95=ADVANCED_FACE('',(#71,#72),#105,.F.);
#96=ADVANCED_FACE('',(#73,#74),#36,.F.);
#97=ADVANCED_FACE('',(#75,#76),#48,.T.);
#98=ADVANCED_FACE('',(#77,#78),#42,.T.);
#99=ADVANCED_FACE('',(#79,#80),#43,.T.);
#100=ADVANCED_FACE('',(#81,#82),#37,.T.);
#101=ADVANCED_FACE('',(#108),#106,.F.);
#102=PLANE('',#236);
#103=PLANE('',#249);
#104=PLANE('',#253);
#105=PLANE('',#259);
#106=PLANE('',#270);
#107=FACE_OUTER_BOUND('',#109,.T.);
#108=FACE_OUTER_BOUND('',#144,.T.);
#109=EDGE_LOOP('',(#145));
#110=EDGE_LOOP('',(#146));
#111=EDGE_LOOP('',(#147));
#112=EDGE_LOOP('',(#148));
#113=EDGE_LOOP('',(#149));
#114=EDGE_LOOP('',(#150));
#115=EDGE_LOOP('',(#151));
#116=EDGE_LOOP('',(#152));
#117=EDGE_LOOP('',(#153));
#118=EDGE_LOOP('',(#154));
#119=EDGE_LOOP('',(#155));
#120=EDGE_LOOP('',(#156));
#121=EDGE_LOOP('',(#157));
#122=EDGE_LOOP('',(#158));
#123=EDGE_LOOP('',(#159));
#124=EDGE_LOOP('',(#160));
#125=EDGE_LOOP('',(#161));
#126=EDGE_LOOP('',(#162));
#127=EDGE_LOOP('',(#163));
#128=EDGE_LOOP('',(#164));
#129=EDGE_LOOP('',(#165));
#130=EDGE_LOOP('',(#166));
#131=EDGE_LOOP('',(#167));
#132=EDGE_LOOP('',(#168));
#133=EDGE_LOOP('',(#169));
#134=EDGE_LOOP('',(#170));
#135=EDGE_LOOP('',(#171));
#136=EDGE_LOOP('',(#172));
#137=EDGE_LOOP('',(#173));
#138=EDGE_LOOP('',(#174));
#139=EDGE_LOOP('',(#175));
#140=EDGE_LOOP('',(#176));
#141=EDGE_LOOP('',(#177));
#142=EDGE_LOOP('',(#178));
#143=EDGE_LOOP('',(#179));
#144=EDGE_LOOP('',(#180));
#145=ORIENTED_EDGE('',*,*,#199,.F.);
#146=ORIENTED_EDGE('',*,*,#200,.F.);
#147=ORIENTED_EDGE('',*,*,#199,.T.);
#148=ORIENTED_EDGE('',*,*,#201,.F.);
#149=ORIENTED_EDGE('',*,*,#200,.T.);
#150=ORIENTED_EDGE('',*,*,#202,.F.);
#151=ORIENTED_EDGE('',*,*,#201,.T.);
#152=ORIENTED_EDGE('',*,*,#203,.F.);
#153=ORIENTED_EDGE('',*,*,#202,.T.);
#154=ORIENTED_EDGE('',*,*,#204,.F.);
#155=ORIENTED_EDGE('',*,*,#203,.T.);
#156=ORIENTED_EDGE('',*,*,#205,.F.);
#157=ORIENTED_EDGE('',*,*,#204,.T.);
#158=ORIENTED_EDGE('',*,*,#206,.F.);
#159=ORIENTED_EDGE('',*,*,#205,.T.);
#160=ORIENTED_EDGE('',*,*,#207,.F.);
#161=ORIENTED_EDGE('',*,*,#206,.T.);
#162=ORIENTED_EDGE('',*,*,#208,.F.);
#163=ORIENTED_EDGE('',*,*,#207,.T.);
#164=ORIENTED_EDGE('',*,*,#209,.F.);
#165=ORIENTED_EDGE('',*,*,#208,.T.);
#166=ORIENTED_EDGE('',*,*,#210,.F.);
#167=ORIENTED_EDGE('',*,*,#209,.T.);
#168=ORIENTED_EDGE('',*,*,#211,.F.);
#169=ORIENTED_EDGE('',*,*,#210,.T.);
#170=ORIENTED_EDGE('',*,*,#212,.F.);
#171=ORIENTED_EDGE('',*,*,#211,.T.);
#172=ORIENTED_EDGE('',*,*,#213,.F.);
#173=ORIENTED_EDGE('',*,*,#212,.T.);
#174=ORIENTED_EDGE('',*,*,#214,.F.);
#175=ORIENTED_EDGE('',*,*,#213,.T.);
#176=ORIENTED_EDGE('',*,*,#215,.F.);
#177=ORIENTED_EDGE('',*,*,#214,.T.);
#178=ORIENTED_EDGE('',*,*,#216,.F.);
#179=ORIENTED_EDGE('',*,*,#215,.T.);
#180=ORIENTED_EDGE('',*,*,#216,.T.);
#181=VERTEX_POINT('',#347);
#182=VERTEX_POINT('',#350);
#183=VERTEX_POINT('',#353);
#184=VERTEX_POINT('',#356);
#185=VERTEX_POINT('',#376);
#186=VERTEX_POINT('',#379);
#187=VERTEX_POINT('',#382);
#188=VERTEX_POINT('',#385);
#189=VERTEX_POINT('',#388);
#190=VERTEX_POINT('',#391);
#191=VERTEX_POINT('',#394);
#192=VERTEX_POINT('',#397);
#193=VERTEX_POINT('',#400);
#194=VERTEX_POINT('',#403);
#195=VERTEX_POINT('',#406);
#196=VERTEX_POINT('',#409);
#197=VERTEX_POINT('',#412);
#198=VERTEX_POINT('',#415);
#199=EDGE_CURVE('',#181,#181,#217,.T.);
#200=EDGE_CURVE('',#182,#182,#218,.T.);
#201=EDGE_CURVE('',#183,#183,#219,.T.);
#202=EDGE_CURVE('',#184,#184,#220,.T.);
#203=EDGE_CURVE('',#185,#185,#34,.T.);
#204=EDGE_CURVE('',#186,#186,#221,.T.);
#205=EDGE_CURVE('',#187,#187,#222,.T.);
#206=EDGE_CURVE('',#188,#188,#223,.T.);
#207=EDGE_CURVE('',#189,#189,#224,.T.);
#208=EDGE_CURVE('',#190,#190,#225,.T.);
#209=EDGE_CURVE('',#191,#191,#226,.T.);
#210=EDGE_CURVE('',#192,#192,#227,.T.);
#211=EDGE_CURVE('',#193,#193,#228,.T.);
#212=EDGE_CURVE('',#194,#194,#229,.T.);
#213=EDGE_CURVE('',#195,#195,#230,.T.);
#214=EDGE_CURVE('',#196,#196,#231,.T.);
#215=EDGE_CURVE('',#197,#197,#232,.T.);
#216=EDGE_CURVE('',#198,#198,#233,.T.);
#217=CIRCLE('',#235,9.6);
#218=CIRCLE('',#237,9.6);
#219=CIRCLE('',#239,15.0188522551756);
#220=CIRCLE('',#241,18.6767719621326);
#221=CIRCLE('',#244,22.99025);
#222=CIRCLE('',#246,19.480757323931);
#223=CIRCLE('',#248,19.0);
#224=CIRCLE('',#250,19.0);
#225=CIRCLE('',#252,19.480757323931);
#226=CIRCLE('',#254,22.99025);
#227=CIRCLE('',#256,22.99025);
#228=CIRCLE('',#258,16.25);
#229=CIRCLE('',#260,15.65);
#230=CIRCLE('',#262,15.65);
#231=CIRCLE('',#264,15.9332467051706);
#232=CIRCLE('',#266,8.8789967045273);
#233=CIRCLE('',#268,8.38423030848271);
#234=AXIS2_PLACEMENT_3D('',#345,#271,#272);
#235=AXIS2_PLACEMENT_3D('',#346,#273,#274);
#236=AXIS2_PLACEMENT_3D('',#348,#275,#276);
#237=AXIS2_PLACEMENT_3D('',#349,#277,#278);
#238=AXIS2_PLACEMENT_3D('',#351,#279,#280);
#239=AXIS2_PLACEMENT_3D('',#352,#281,#282);
#240=AXIS2_PLACEMENT_3D('',#354,#283,#284);
#241=AXIS2_PLACEMENT_3D('',#355,#285,#286);
#242=AXIS2_PLACEMENT_3D('',#357,#287,#288);
#243=AXIS2_PLACEMENT_3D('',#377,#289,#290);
#244=AXIS2_PLACEMENT_3D('',#378,#291,#292);
#245=AXIS2_PLACEMENT_3D('',#380,#293,#294);
#246=AXIS2_PLACEMENT_3D('',#381,#295,#296);
#247=AXIS2_PLACEMENT_3D('',#383,#297,#298);
#248=AXIS2_PLACEMENT_3D('',#384,#299,#300);
#249=AXIS2_PLACEMENT_3D('',#386,#301,#302);
#250=AXIS2_PLACEMENT_3D('',#387,#303,#304);
#251=AXIS2_PLACEMENT_3D('',#389,#305,#306);
#252=AXIS2_PLACEMENT_3D('',#390,#307,#308);
#253=AXIS2_PLACEMENT_3D('',#392,#309,#310);
#254=AXIS2_PLACEMENT_3D('',#393,#311,#312);
#255=AXIS2_PLACEMENT_3D('',#395,#313,#314);
#256=AXIS2_PLACEMENT_3D('',#396,#315,#316);
#257=AXIS2_PLACEMENT_3D('',#398,#317,#318);
#258=AXIS2_PLACEMENT_3D('',#399,#319,#320);
#259=AXIS2_PLACEMENT_3D('',#401,#321,#322);
#260=AXIS2_PLACEMENT_3D('',#402,#323,#324);
#261=AXIS2_PLACEMENT_3D('',#404,#325,#326);
#262=AXIS2_PLACEMENT_3D('',#405,#327,#328);
#263=AXIS2_PLACEMENT_3D('',#407,#329,#330);
#264=AXIS2_PLACEMENT_3D('',#408,#331,#332);
#265=AXIS2_PLACEMENT_3D('',#410,#333,#334);
#266=AXIS2_PLACEMENT_3D('',#411,#335,#336);
#267=AXIS2_PLACEMENT_3D('',#413,#337,#338);
#268=AXIS2_PLACEMENT_3D('',#414,#339,#340);
#269=AXIS2_PLACEMENT_3D('',#416,#341,#342);
#270=AXIS2_PLACEMENT_3D('',#417,#343,#344);
#271=DIRECTION('',(0.0,0.0,1.0));
#272=DIRECTION('',(1.0,0.0,0.0));
#273=DIRECTION('',(0.0,0.0,1.0));
#274=DIRECTION('',(1.0,0.0,0.0));
#275=DIRECTION('',(0.0,0.0,1.0));
#276=DIRECTION('',(1.0,0.0,0.0));
#277=DIRECTION('',(0.0,0.0,1.0));
#278=DIRECTION('',(1.0,0.0,0.0));
#279=DIRECTION('',(0.0,0.0,1.0));
#280=DIRECTION('',(1.0,0.0,0.0));
#281=DIRECTION('',(0.0,0.0,1.0));
#282=DIRECTION('',(1.0,0.0,0.0));
#283=DIRECTION('',(0.0,0.0,1.0));
#284=DIRECTION('',(1.0,0.0,-3.71057937462166E-16));
#285=DIRECTION('',(0.0,0.0,1.0));
#286=DIRECTION('',(1.0,0.0,0.0));
#287=DIRECTION('',(0.0,0.0,1.0));
#288=DIRECTION('',(1.0,0.0,0.0));
#289=DIRECTION('',(0.0,0.0,1.0));
#290=DIRECTION('',(1.0,0.0,-2.77431522072741E-18));
#291=DIRECTION('',(0.0,0.0,1.0));
#292=DIRECTION('',(1.0,0.0,0.0));
#293=DIRECTION('',(0.0,0.0,1.0));
#294=DIRECTION('',(1.0,0.0,0.0));
#295=DIRECTION('',(0.0,0.0,1.0));
#296=DIRECTION('',(1.0,0.0,0.0));
#297=DIRECTION('',(0.0,0.0,-1.0));
#298=DIRECTION('',(-1.0,0.0,3.14724602936513E-17));
#299=DIRECTION('',(0.0,0.0,1.0));
#300=DIRECTION('',(1.0,0.0,0.0));
#301=DIRECTION('',(0.0,0.0,-1.0));
#302=DIRECTION('',(-1.0,0.0,0.0));
#303=DIRECTION('',(0.0,0.0,1.0));
#304=DIRECTION('',(1.0,0.0,0.0));
#305=DIRECTION('',(0.0,0.0,1.0));
#306=DIRECTION('',(1.0,0.0,0.0));
#307=DIRECTION('',(0.0,0.0,1.0));
#308=DIRECTION('',(1.0,0.0,0.0));
#309=DIRECTION('',(0.0,0.0,1.0));
#310=DIRECTION('',(1.0,0.0,0.0));
#311=DIRECTION('',(0.0,0.0,1.0));
#312=DIRECTION('',(1.0,0.0,0.0));
#313=DIRECTION('',(0.0,0.0,1.0));
#314=DIRECTION('',(1.0,0.0,-3.15352069352256E-17));
#315=DIRECTION('',(0.0,0.0,1.0));
#316=DIRECTION('',(1.0,0.0,0.0));
#317=DIRECTION('',(0.0,0.0,1.0));
#318=DIRECTION('',(1.0,0.0,0.0));
#319=DIRECTION('',(0.0,0.0,1.0));
#320=DIRECTION('',(1.0,0.0,0.0));
#321=DIRECTION('',(0.0,0.0,-1.0));
#322=DIRECTION('',(-1.0,0.0,0.0));
#323=DIRECTION('',(0.0,0.0,1.0));
#324=DIRECTION('',(1.0,0.0,0.0));
#325=DIRECTION('',(0.0,0.0,1.0));
#326=DIRECTION('',(1.0,0.0,0.0));
#327=DIRECTION('',(0.0,0.0,1.0));
#328=DIRECTION('',(1.0,0.0,0.0));
#329=DIRECTION('',(0.0,0.0,1.0));
#330=DIRECTION('',(1.0,0.0,0.0));
#331=DIRECTION('',(0.0,0.0,1.0));
#332=DIRECTION('',(1.0,0.0,0.0));
#333=DIRECTION('',(0.0,0.0,1.0));
#334=DIRECTION('',(1.0,0.0,8.77600011049068E-17));
#335=DIRECTION('',(0.0,0.0,1.0));
#336=DIRECTION('',(1.0,0.0,0.0));
#337=DIRECTION('',(0.0,0.0,-1.0));
#338=DIRECTION('',(-1.0,0.0,-4.08164445463555E-16));
#339=DIRECTION('',(0.0,0.0,1.0));
#340=DIRECTION('',(1.0,0.0,0.0));
#341=DIRECTION('',(0.0,0.0,1.0));
#342=DIRECTION('',(1.0,0.0,0.0));
#343=DIRECTION('',(0.0,0.0,-1.0));
#344=DIRECTION('',(-1.0,0.0,0.0));
#345=CARTESIAN_POINT('',(0.0,0.0,0.0));
#346=CARTESIAN_POINT('',(0.0,0.0,-86.0));
#347=CARTESIAN_POINT('',(9.6,0.0,-86.0));
#348=CARTESIAN_POINT('',(0.0,0.0,-86.0));
#349=CARTESIAN_POINT('',(0.0,0.0,-66.0));
#350=CARTESIAN_POINT('',(9.6,0.0,-66.0));
#351=CARTESIAN_POINT('',(0.0,0.0,0.0));
#352=CARTESIAN_POINT('',(0.0,0.0,-27.294570953803));
#353=CARTESIAN_POINT('',(15.0188522551756,0.0,-27.294570953803));
#354=CARTESIAN_POINT('',(0.0,0.0,-66.0));
#355=CARTESIAN_POINT('',(0.0,0.0,-23.1581101430873));
#356=CARTESIAN_POINT('',(18.6767719621326,0.0,-23.1581101430873));
#357=CARTESIAN_POINT('',(0.0,0.0,-27.9878217437455));
#358=CARTESIAN_POINT('',(6.01883337534939,22.99025,-22.0));
#359=CARTESIAN_POINT('',(-6.0188333753494,22.99025,-22.0));
#360=CARTESIAN_POINT('',(-12.0006037816325,20.5125195707155,-22.0));
#361=CARTESIAN_POINT('',(-20.5125195707155,12.0006037816326,-22.0));
#362=CARTESIAN_POINT('',(-22.99025,6.0188333753494,-22.0));
#363=CARTESIAN_POINT('',(-22.99025,-6.0188333753494,-22.0));
#364=CARTESIAN_POINT('',(-20.5125195707155,-12.0006037816326,-22.0));
#365=CARTESIAN_POINT('',(-12.0006037816326,-20.5125195707155,-22.0));
#366=CARTESIAN_POINT('',(-6.0188333753494,-22.99025,-22.0));
#367=CARTESIAN_POINT('',(6.01883337534939,-22.99025,-22.0));
#368=CARTESIAN_POINT('',(12.0006037816326,-20.5125195707155,-22.0));
#369=CARTESIAN_POINT('',(20.5125195707155,-12.0006037816326,-22.0));
#370=CARTESIAN_POINT('',(22.99025,-6.01883337534938,-22.0));
#371=CARTESIAN_POINT('',(22.99025,6.01883337534938,-22.0));
#372=CARTESIAN_POINT('',(20.5125195707155,12.0006037816325,-22.0));
#373=CARTESIAN_POINT('',(12.0006037816326,20.5125195707155,-22.0));
#374=CARTESIAN_POINT('',(6.01883337534939,22.99025,-22.0));
#375=CARTESIAN_POINT('',(-6.0188333753494,22.99025,-22.0));
#376=CARTESIAN_POINT('',(7.03948028766759E-15,22.9926875,-22.0006529596517));
#377=CARTESIAN_POINT('',(0.0,0.0,-23.1581101430873));
#378=CARTESIAN_POINT('',(0.0,0.0,-17.616010667241));
#379=CARTESIAN_POINT('',(22.99025,0.0,-17.616010667241));
#380=CARTESIAN_POINT('',(0.0,0.0,0.0));
#381=CARTESIAN_POINT('',(0.0,0.0,-15.6));
#382=CARTESIAN_POINT('',(19.480757323931,0.0,-15.6));
#383=CARTESIAN_POINT('',(0.0,0.0,-17.616010667241));
#384=CARTESIAN_POINT('',(0.0,0.0,-15.6));
#385=CARTESIAN_POINT('',(19.0,0.0,-15.6));
#386=CARTESIAN_POINT('',(0.0,19.480757323931,-15.6));
#387=CARTESIAN_POINT('',(0.0,0.0,-11.6));
#388=CARTESIAN_POINT('',(19.0,0.0,-11.6));
#389=CARTESIAN_POINT('',(0.0,0.0,0.0));
#390=CARTESIAN_POINT('',(0.0,0.0,-11.6));
#391=CARTESIAN_POINT('',(19.480757323931,0.0,-11.6));
#392=CARTESIAN_POINT('',(0.0,19.0,-11.6));
#393=CARTESIAN_POINT('',(0.0,0.0,-9.58398933275902));
#394=CARTESIAN_POINT('',(22.99025,0.0,-9.58398933275902));
#395=CARTESIAN_POINT('',(0.0,0.0,-11.6));
#396=CARTESIAN_POINT('',(0.0,0.0,-2.0));
#397=CARTESIAN_POINT('',(22.99025,0.0,-2.0));
#398=CARTESIAN_POINT('',(0.0,0.0,0.0));
#399=CARTESIAN_POINT('',(0.0,0.0,-2.0));
#400=CARTESIAN_POINT('',(16.25,0.0,-2.0));
#401=CARTESIAN_POINT('',(0.0,22.99025,-2.0));
#402=CARTESIAN_POINT('',(0.0,0.0,-1.4));
#403=CARTESIAN_POINT('',(15.65,0.0,-1.4));
#404=CARTESIAN_POINT('',(0.0,0.0,-1.4));
#405=CARTESIAN_POINT('',(0.0,0.0,-0.889999999999998));
#406=CARTESIAN_POINT('',(15.65,0.0,-0.889999999999998));
#407=CARTESIAN_POINT('',(0.0,0.0,0.0));
#408=CARTESIAN_POINT('',(0.0,0.0,-0.399402315568165));
#409=CARTESIAN_POINT('',(15.9332467051706,0.0,-0.399402315568165));
#410=CARTESIAN_POINT('',(0.0,0.0,-0.889999999999998));
#411=CARTESIAN_POINT('',(0.0,0.0,47.9721540944441));
#412=CARTESIAN_POINT('',(8.8789967045273,0.0,47.9721540944441));
#413=CARTESIAN_POINT('',(0.0,0.0,-0.399402315568165));
#414=CARTESIAN_POINT('',(0.0,0.0,48.4));
#415=CARTESIAN_POINT('',(8.38423030848271,0.0,48.4));
#416=CARTESIAN_POINT('',(0.0,0.0,47.9));
#417=CARTESIAN_POINT('',(0.0,8.38423030848271,48.4));
#418=MECHANICAL_DESIGN_GEOMETRIC_PRESENTATION_REPRESENTATION('',(#24),#419);
#419=(GEOMETRIC_REPRESENTATION_CONTEXT(3)GLOBAL_UNCERTAINTY_ASSIGNED_CONTEXT((#420))
     GLOBAL_UNIT_ASSIGNED_CONTEXT((#426,#422,#421))REPRESENTATION_CONTEXT('392','TOP_LEVEL_ASSEMBLY_PART'));
#420=UNCERTAINTY_MEASURE_WITH_UNIT(LENGTH_MEASURE(0.0508),#426,'DISTANCE_ACCURACY_VALUE',
     'Maximum Tolerance applied to model');
#421=(NAMED_UNIT(*)SI_UNIT($,.STERADIAN.)SOLID_ANGLE_UNIT());
#422=(CONVERSION_BASED_UNIT('DEGREE',#424)NAMED_UNIT(*)PLANE_ANGLE_UNIT());
#423=DIMENSIONAL_EXPONENTS(0.0,0.0,0.0,0.0,0.0,0.0,0.0);
#424=PLANE_ANGLE_MEASURE_WITH_UNIT(PLANE_ANGLE_MEASURE(0.0174532925),#425);
#425=(NAMED_UNIT(*)PLANE_ANGLE_UNIT()SI_UNIT($,.RADIAN.));
#426=(LENGTH_UNIT()NAMED_UNIT(*)SI_UNIT(.MILLI.,.METRE.));
#427=CARTESIAN_POINT('',(0.0,0.0,0.0));
#428=DIRECTION('',(0.0,0.0,1.0));
#429=DIRECTION('',(1.0,0.0,0.0));
#430=AXIS2_PLACEMENT_3D('PCS',#427,#428,#429);
#431=CARTESIAN_POINT('',(0.0,0.0,0.0));
#432=DIRECTION('',(0.0,0.0,1.0));
#433=DIRECTION('',(1.0,0.0,0.0));
#434=AXIS2_PLACEMENT_3D('MCS',#431,#432,#433);
#435=CARTESIAN_POINT('',(0.0,0.0,-86.0));
#436=DIRECTION('',(0.0,0.0,1.0));
#437=DIRECTION('',(1.0,0.0,0.0));
#438=AXIS2_PLACEMENT_3D('CSW',#435,#436,#437);
#439=CONSTRUCTIVE_GEOMETRY_REPRESENTATION('supplemental geometry',(#430,#434,#438),
     #419);
#440=CONSTRUCTIVE_GEOMETRY_REPRESENTATION_RELATIONSHIP('supplemental geometry',$,
     #22,#439);
ENDSEC;
END-ISO-10303-21;
