ISO-10303-21;
HEADER;
FILE_DESCRIPTION(
/* description */ ('3-D model version:1'),
/* implementation_level */ '2;1');
FILE_NAME(
/* name */ '392.55EH-3016041',
/* time_stamp */ '2016-12-02T13:57:26',
/* author */ ('InteractiveCad'),
/* organization */ ('AB Sandvik Coromant'),
/* preprocessor_version */ 'ST-DEVELOPER v11',
/* originating_system */ 'SIEMENS UGS NX 6.0',
/* authorization */ '');
FILE_SCHEMA(('AUTOMOTIVE_DESIGN'));
ENDSEC;
DATA;
#10=SHAPE_REPRESENTATION_RELATIONSHIP('None','relationship between 392.55EH_3016041uno_stp-None and 392.55EH_3016041\X\0Duno_stp-None',
     #22,#11);
#11=ADVANCED_BREP_SHAPE_REPRESENTATION('392.55EH_3016041uno_stp-None',(#32),#425);
#12=SHAPE_DEFINITION_REPRESENTATION(#13,#22);
#13=PRODUCT_DEFINITION_SHAPE('','',#14);
#14=PRODUCT_DEFINITION(' ','',#16,#15);
#15=PRODUCT_DEFINITION_CONTEXT('part definition',#21,'design');
#16=PRODUCT_DEFINITION_FORMATION_WITH_SPECIFIED_SOURCE(' ',' ',#18,.NOT_KNOWN.);
#17=PRODUCT_RELATED_PRODUCT_CATEGORY('part','',(#18));
#18=PRODUCT('392.55EH_3016041uno_stp','392.55EH_3016041uno_stp',' ',(#19));
#19=PRODUCT_CONTEXT(' ',#21,'mechanical');
#20=APPLICATION_PROTOCOL_DEFINITION('international standard','automotive_design',
     2001,#21);
#21=APPLICATION_CONTEXT('core data for automotive mechanical design processes');
#22=SHAPE_REPRESENTATION('392.55EH_3016041uno_stp-None',(#245),#425);
#23=PRESENTATION_LAYER_ASSIGNMENT('1','Layer 1',(#32));
#24=STYLED_ITEM('',(#25),#32);
#25=PRESENTATION_STYLE_ASSIGNMENT((#26));
#26=SURFACE_STYLE_USAGE(.BOTH.,#27);
#27=SURFACE_SIDE_STYLE('',(#28));
#28=SURFACE_STYLE_FILL_AREA(#29);
#29=FILL_AREA_STYLE('',(#30));
#30=FILL_AREA_STYLE_COLOUR('',#31);
#31=COLOUR_RGB('TLS_NOCUT',0.499992370489052,0.499992370489052,0.499992370489052);
#32=MANIFOLD_SOLID_BREP('NOCUT',#33);
#33=CLOSED_SHELL('',(#52,#53,#54,#55,#56,#57,#58,#59,#60,#61,#62,#63,#64,#65,#66,
     #67,#68,#69,#70,#71));
#34=FACE_OUTER_BOUND('',#148,.T.);
#35=FACE_OUTER_BOUND('',#149,.T.);
#36=PLANE('',#258);
#37=PLANE('',#264);
#38=PLANE('',#268);
#39=PLANE('',#274);
#40=PLANE('',#283);
#41=PLANE('',#284);
#42=CYLINDRICAL_SURFACE('',#254,15.65);
#43=CYLINDRICAL_SURFACE('',#260,22.99025);
#44=CYLINDRICAL_SURFACE('',#266,19.0);
#45=CYLINDRICAL_SURFACE('',#272,22.99025);
#46=CYLINDRICAL_SURFACE('',#282,7.7);
#47=CONICAL_SURFACE('',#250,8.8789967045273,8.29722000000015);
#48=CONICAL_SURFACE('',#252,15.9332467051705,29.999999999995);
#49=CONICAL_SURFACE('',#262,22.99025,60.125);
#50=CONICAL_SURFACE('',#270,19.480757323931,60.1250000000001);
#51=CONICAL_SURFACE('',#278,17.3355339059327,45.0000000000001);
#52=ADVANCED_FACE('',(#76,#77),#72,.T.);
#53=ADVANCED_FACE('',(#78,#79),#47,.T.);
#54=ADVANCED_FACE('',(#80,#81),#48,.T.);
#55=ADVANCED_FACE('',(#82,#83),#42,.T.);
#56=ADVANCED_FACE('',(#84,#85),#73,.F.);
#57=ADVANCED_FACE('',(#86,#87),#36,.T.);
#58=ADVANCED_FACE('',(#88,#89),#43,.T.);
#59=ADVANCED_FACE('',(#90,#91),#49,.T.);
#60=ADVANCED_FACE('',(#92,#93),#37,.T.);
#61=ADVANCED_FACE('',(#94,#95),#44,.T.);
#62=ADVANCED_FACE('',(#96,#97),#38,.T.);
#63=ADVANCED_FACE('',(#98,#99),#50,.T.);
#64=ADVANCED_FACE('',(#100,#101),#45,.T.);
#65=ADVANCED_FACE('',(#102,#103),#39,.T.);
#66=ADVANCED_FACE('',(#104,#105),#74,.F.);
#67=ADVANCED_FACE('',(#106,#107),#51,.T.);
#68=ADVANCED_FACE('',(#108,#109),#75,.F.);
#69=ADVANCED_FACE('',(#110,#111),#46,.T.);
#70=ADVANCED_FACE('',(#34),#40,.T.);
#71=ADVANCED_FACE('',(#35),#41,.T.);
#72=TOROIDAL_SURFACE('',#248,8.38423030848271,0.5);
#73=TOROIDAL_SURFACE('',#256,16.25,0.6);
#74=TOROIDAL_SURFACE('',#276,20.8710678118655,5.0);
#75=TOROIDAL_SURFACE('',#280,12.7,5.0);
#76=FACE_BOUND('',#112,.T.);
#77=FACE_BOUND('',#113,.T.);
#78=FACE_BOUND('',#114,.T.);
#79=FACE_BOUND('',#115,.T.);
#80=FACE_BOUND('',#116,.T.);
#81=FACE_BOUND('',#117,.T.);
#82=FACE_BOUND('',#118,.T.);
#83=FACE_BOUND('',#119,.T.);
#84=FACE_BOUND('',#120,.T.);
#85=FACE_BOUND('',#121,.T.);
#86=FACE_BOUND('',#122,.T.);
#87=FACE_BOUND('',#123,.T.);
#88=FACE_BOUND('',#124,.T.);
#89=FACE_BOUND('',#125,.T.);
#90=FACE_BOUND('',#126,.T.);
#91=FACE_BOUND('',#127,.T.);
#92=FACE_BOUND('',#128,.T.);
#93=FACE_BOUND('',#129,.T.);
#94=FACE_BOUND('',#130,.T.);
#95=FACE_BOUND('',#131,.T.);
#96=FACE_BOUND('',#132,.T.);
#97=FACE_BOUND('',#133,.T.);
#98=FACE_BOUND('',#134,.T.);
#99=FACE_BOUND('',#135,.T.);
#100=FACE_BOUND('',#136,.T.);
#101=FACE_BOUND('',#137,.T.);
#102=FACE_BOUND('',#138,.T.);
#103=FACE_BOUND('',#139,.T.);
#104=FACE_BOUND('',#140,.T.);
#105=FACE_BOUND('',#141,.T.);
#106=FACE_BOUND('',#142,.T.);
#107=FACE_BOUND('',#143,.T.);
#108=FACE_BOUND('',#144,.T.);
#109=FACE_BOUND('',#145,.T.);
#110=FACE_BOUND('',#146,.T.);
#111=FACE_BOUND('',#147,.T.);
#112=EDGE_LOOP('',(#150));
#113=EDGE_LOOP('',(#151));
#114=EDGE_LOOP('',(#152));
#115=EDGE_LOOP('',(#153));
#116=EDGE_LOOP('',(#154));
#117=EDGE_LOOP('',(#155));
#118=EDGE_LOOP('',(#156));
#119=EDGE_LOOP('',(#157));
#120=EDGE_LOOP('',(#158));
#121=EDGE_LOOP('',(#159));
#122=EDGE_LOOP('',(#160));
#123=EDGE_LOOP('',(#161));
#124=EDGE_LOOP('',(#162));
#125=EDGE_LOOP('',(#163));
#126=EDGE_LOOP('',(#164));
#127=EDGE_LOOP('',(#165));
#128=EDGE_LOOP('',(#166));
#129=EDGE_LOOP('',(#167));
#130=EDGE_LOOP('',(#168));
#131=EDGE_LOOP('',(#169));
#132=EDGE_LOOP('',(#170));
#133=EDGE_LOOP('',(#171));
#134=EDGE_LOOP('',(#172));
#135=EDGE_LOOP('',(#173));
#136=EDGE_LOOP('',(#174));
#137=EDGE_LOOP('',(#175));
#138=EDGE_LOOP('',(#176));
#139=EDGE_LOOP('',(#177));
#140=EDGE_LOOP('',(#178));
#141=EDGE_LOOP('',(#179));
#142=EDGE_LOOP('',(#180));
#143=EDGE_LOOP('',(#181));
#144=EDGE_LOOP('',(#182));
#145=EDGE_LOOP('',(#183));
#146=EDGE_LOOP('',(#184));
#147=EDGE_LOOP('',(#185));
#148=EDGE_LOOP('',(#186));
#149=EDGE_LOOP('',(#187));
#150=ORIENTED_EDGE('',*,*,#207,.T.);
#151=ORIENTED_EDGE('',*,*,#208,.F.);
#152=ORIENTED_EDGE('',*,*,#209,.T.);
#153=ORIENTED_EDGE('',*,*,#207,.F.);
#154=ORIENTED_EDGE('',*,*,#210,.T.);
#155=ORIENTED_EDGE('',*,*,#209,.F.);
#156=ORIENTED_EDGE('',*,*,#211,.T.);
#157=ORIENTED_EDGE('',*,*,#210,.F.);
#158=ORIENTED_EDGE('',*,*,#212,.T.);
#159=ORIENTED_EDGE('',*,*,#211,.F.);
#160=ORIENTED_EDGE('',*,*,#213,.T.);
#161=ORIENTED_EDGE('',*,*,#212,.F.);
#162=ORIENTED_EDGE('',*,*,#214,.T.);
#163=ORIENTED_EDGE('',*,*,#213,.F.);
#164=ORIENTED_EDGE('',*,*,#215,.T.);
#165=ORIENTED_EDGE('',*,*,#214,.F.);
#166=ORIENTED_EDGE('',*,*,#216,.T.);
#167=ORIENTED_EDGE('',*,*,#215,.F.);
#168=ORIENTED_EDGE('',*,*,#217,.T.);
#169=ORIENTED_EDGE('',*,*,#216,.F.);
#170=ORIENTED_EDGE('',*,*,#218,.T.);
#171=ORIENTED_EDGE('',*,*,#217,.F.);
#172=ORIENTED_EDGE('',*,*,#219,.T.);
#173=ORIENTED_EDGE('',*,*,#218,.F.);
#174=ORIENTED_EDGE('',*,*,#220,.T.);
#175=ORIENTED_EDGE('',*,*,#219,.F.);
#176=ORIENTED_EDGE('',*,*,#221,.T.);
#177=ORIENTED_EDGE('',*,*,#220,.F.);
#178=ORIENTED_EDGE('',*,*,#222,.T.);
#179=ORIENTED_EDGE('',*,*,#221,.F.);
#180=ORIENTED_EDGE('',*,*,#223,.T.);
#181=ORIENTED_EDGE('',*,*,#222,.F.);
#182=ORIENTED_EDGE('',*,*,#224,.T.);
#183=ORIENTED_EDGE('',*,*,#223,.F.);
#184=ORIENTED_EDGE('',*,*,#225,.T.);
#185=ORIENTED_EDGE('',*,*,#224,.F.);
#186=ORIENTED_EDGE('',*,*,#225,.F.);
#187=ORIENTED_EDGE('',*,*,#208,.T.);
#188=VERTEX_POINT('',#367);
#189=VERTEX_POINT('',#369);
#190=VERTEX_POINT('',#372);
#191=VERTEX_POINT('',#375);
#192=VERTEX_POINT('',#378);
#193=VERTEX_POINT('',#381);
#194=VERTEX_POINT('',#384);
#195=VERTEX_POINT('',#387);
#196=VERTEX_POINT('',#390);
#197=VERTEX_POINT('',#393);
#198=VERTEX_POINT('',#396);
#199=VERTEX_POINT('',#399);
#200=VERTEX_POINT('',#402);
#201=VERTEX_POINT('',#405);
#202=VERTEX_POINT('',#408);
#203=VERTEX_POINT('',#411);
#204=VERTEX_POINT('',#414);
#205=VERTEX_POINT('',#417);
#206=VERTEX_POINT('',#420);
#207=EDGE_CURVE('',#188,#188,#226,.T.);
#208=EDGE_CURVE('',#189,#189,#227,.T.);
#209=EDGE_CURVE('',#190,#190,#228,.T.);
#210=EDGE_CURVE('',#191,#191,#229,.T.);
#211=EDGE_CURVE('',#192,#192,#230,.T.);
#212=EDGE_CURVE('',#193,#193,#231,.T.);
#213=EDGE_CURVE('',#194,#194,#232,.T.);
#214=EDGE_CURVE('',#195,#195,#233,.T.);
#215=EDGE_CURVE('',#196,#196,#234,.T.);
#216=EDGE_CURVE('',#197,#197,#235,.T.);
#217=EDGE_CURVE('',#198,#198,#236,.T.);
#218=EDGE_CURVE('',#199,#199,#237,.T.);
#219=EDGE_CURVE('',#200,#200,#238,.T.);
#220=EDGE_CURVE('',#201,#201,#239,.T.);
#221=EDGE_CURVE('',#202,#202,#240,.T.);
#222=EDGE_CURVE('',#203,#203,#241,.T.);
#223=EDGE_CURVE('',#204,#204,#242,.T.);
#224=EDGE_CURVE('',#205,#205,#243,.T.);
#225=EDGE_CURVE('',#206,#206,#244,.T.);
#226=CIRCLE('',#246,8.8789967045273);
#227=CIRCLE('',#247,8.38423030848271);
#228=CIRCLE('',#249,15.9332467051705);
#229=CIRCLE('',#251,15.6500000000001);
#230=CIRCLE('',#253,15.65);
#231=CIRCLE('',#255,16.25);
#232=CIRCLE('',#257,22.99025);
#233=CIRCLE('',#259,22.99025);
#234=CIRCLE('',#261,19.480757323931);
#235=CIRCLE('',#263,19.0);
#236=CIRCLE('',#265,19.0);
#237=CIRCLE('',#267,19.480757323931);
#238=CIRCLE('',#269,22.99025);
#239=CIRCLE('',#271,22.99025);
#240=CIRCLE('',#273,20.8710678118655);
#241=CIRCLE('',#275,17.3355339059327);
#242=CIRCLE('',#277,9.16446609406728);
#243=CIRCLE('',#279,7.7);
#244=CIRCLE('',#281,7.7);
#245=AXIS2_PLACEMENT_3D('',#365,#285,#286);
#246=AXIS2_PLACEMENT_3D('',#366,#287,#288);
#247=AXIS2_PLACEMENT_3D('',#368,#289,#290);
#248=AXIS2_PLACEMENT_3D('',#370,#291,#292);
#249=AXIS2_PLACEMENT_3D('',#371,#293,#294);
#250=AXIS2_PLACEMENT_3D('',#373,#295,#296);
#251=AXIS2_PLACEMENT_3D('',#374,#297,#298);
#252=AXIS2_PLACEMENT_3D('',#376,#299,#300);
#253=AXIS2_PLACEMENT_3D('',#377,#301,#302);
#254=AXIS2_PLACEMENT_3D('',#379,#303,#304);
#255=AXIS2_PLACEMENT_3D('',#380,#305,#306);
#256=AXIS2_PLACEMENT_3D('',#382,#307,#308);
#257=AXIS2_PLACEMENT_3D('',#383,#309,#310);
#258=AXIS2_PLACEMENT_3D('',#385,#311,#312);
#259=AXIS2_PLACEMENT_3D('',#386,#313,#314);
#260=AXIS2_PLACEMENT_3D('',#388,#315,#316);
#261=AXIS2_PLACEMENT_3D('',#389,#317,#318);
#262=AXIS2_PLACEMENT_3D('',#391,#319,#320);
#263=AXIS2_PLACEMENT_3D('',#392,#321,#322);
#264=AXIS2_PLACEMENT_3D('',#394,#323,#324);
#265=AXIS2_PLACEMENT_3D('',#395,#325,#326);
#266=AXIS2_PLACEMENT_3D('',#397,#327,#328);
#267=AXIS2_PLACEMENT_3D('',#398,#329,#330);
#268=AXIS2_PLACEMENT_3D('',#400,#331,#332);
#269=AXIS2_PLACEMENT_3D('',#401,#333,#334);
#270=AXIS2_PLACEMENT_3D('',#403,#335,#336);
#271=AXIS2_PLACEMENT_3D('',#404,#337,#338);
#272=AXIS2_PLACEMENT_3D('',#406,#339,#340);
#273=AXIS2_PLACEMENT_3D('',#407,#341,#342);
#274=AXIS2_PLACEMENT_3D('',#409,#343,#344);
#275=AXIS2_PLACEMENT_3D('',#410,#345,#346);
#276=AXIS2_PLACEMENT_3D('',#412,#347,#348);
#277=AXIS2_PLACEMENT_3D('',#413,#349,#350);
#278=AXIS2_PLACEMENT_3D('',#415,#351,#352);
#279=AXIS2_PLACEMENT_3D('',#416,#353,#354);
#280=AXIS2_PLACEMENT_3D('',#418,#355,#356);
#281=AXIS2_PLACEMENT_3D('',#419,#357,#358);
#282=AXIS2_PLACEMENT_3D('',#421,#359,#360);
#283=AXIS2_PLACEMENT_3D('',#422,#361,#362);
#284=AXIS2_PLACEMENT_3D('',#423,#363,#364);
#285=DIRECTION('',(0.0,0.0,1.0));
#286=DIRECTION('',(1.0,0.0,0.0));
#287=DIRECTION('',(0.0,0.0,1.0));
#288=DIRECTION('',(1.0,0.0,0.0));
#289=DIRECTION('',(0.0,0.0,1.0));
#290=DIRECTION('',(1.0,0.0,0.0));
#291=DIRECTION('',(0.0,0.0,1.0));
#292=DIRECTION('',(1.0,0.0,0.0));
#293=DIRECTION('',(0.0,0.0,1.0));
#294=DIRECTION('',(1.0,0.0,0.0));
#295=DIRECTION('',(0.0,0.0,-1.0));
#296=DIRECTION('',(-1.0,0.0,4.4849908996382E-17));
#297=DIRECTION('',(0.0,0.0,1.0));
#298=DIRECTION('',(1.0,0.0,0.0));
#299=DIRECTION('',(0.0,0.0,1.0));
#300=DIRECTION('',(1.0,0.0,9.13730234734831E-17));
#301=DIRECTION('',(0.0,0.0,1.0));
#302=DIRECTION('',(1.0,0.0,0.0));
#303=DIRECTION('',(0.0,0.0,1.0));
#304=DIRECTION('',(1.0,0.0,0.0));
#305=DIRECTION('',(0.0,0.0,1.0));
#306=DIRECTION('',(1.0,0.0,0.0));
#307=DIRECTION('',(0.0,0.0,1.0));
#308=DIRECTION('',(1.0,0.0,0.0));
#309=DIRECTION('',(0.0,0.0,1.0));
#310=DIRECTION('',(1.0,0.0,0.0));
#311=DIRECTION('',(0.0,0.0,1.0));
#312=DIRECTION('',(1.0,0.0,0.0));
#313=DIRECTION('',(0.0,0.0,1.0));
#314=DIRECTION('',(1.0,0.0,0.0));
#315=DIRECTION('',(0.0,0.0,1.0));
#316=DIRECTION('',(1.0,0.0,0.0));
#317=DIRECTION('',(0.0,0.0,1.0));
#318=DIRECTION('',(1.0,0.0,0.0));
#319=DIRECTION('',(0.0,0.0,1.0));
#320=DIRECTION('',(1.0,0.0,-2.16373164518852E-17));
#321=DIRECTION('',(0.0,0.0,1.0));
#322=DIRECTION('',(1.0,0.0,0.0));
#323=DIRECTION('',(0.0,0.0,-1.0));
#324=DIRECTION('',(-1.0,0.0,0.0));
#325=DIRECTION('',(0.0,0.0,1.0));
#326=DIRECTION('',(1.0,0.0,0.0));
#327=DIRECTION('',(0.0,0.0,1.0));
#328=DIRECTION('',(1.0,0.0,0.0));
#329=DIRECTION('',(0.0,0.0,1.0));
#330=DIRECTION('',(1.0,0.0,0.0));
#331=DIRECTION('',(0.0,0.0,1.0));
#332=DIRECTION('',(1.0,0.0,0.0));
#333=DIRECTION('',(0.0,0.0,1.0));
#334=DIRECTION('',(1.0,0.0,0.0));
#335=DIRECTION('',(0.0,0.0,-1.0));
#336=DIRECTION('',(-1.0,0.0,-3.35061573686772E-17));
#337=DIRECTION('',(0.0,0.0,1.0));
#338=DIRECTION('',(1.0,0.0,0.0));
#339=DIRECTION('',(0.0,0.0,1.0));
#340=DIRECTION('',(1.0,0.0,0.0));
#341=DIRECTION('',(0.0,0.0,1.0));
#342=DIRECTION('',(1.0,0.0,0.0));
#343=DIRECTION('',(0.0,0.0,-1.0));
#344=DIRECTION('',(-1.0,0.0,0.0));
#345=DIRECTION('',(0.0,0.0,1.0));
#346=DIRECTION('',(1.0,0.0,0.0));
#347=DIRECTION('',(0.0,0.0,1.0));
#348=DIRECTION('',(1.0,0.0,0.0));
#349=DIRECTION('',(0.0,0.0,1.0));
#350=DIRECTION('',(1.0,0.0,0.0));
#351=DIRECTION('',(0.0,0.0,1.0));
#352=DIRECTION('',(1.0,0.0,4.09239253283498E-17));
#353=DIRECTION('',(0.0,0.0,1.0));
#354=DIRECTION('',(1.0,0.0,0.0));
#355=DIRECTION('',(0.0,0.0,1.0));
#356=DIRECTION('',(1.0,0.0,0.0));
#357=DIRECTION('',(0.0,0.0,1.0));
#358=DIRECTION('',(1.0,0.0,0.0));
#359=DIRECTION('',(0.0,0.0,1.0));
#360=DIRECTION('',(1.0,0.0,0.0));
#361=DIRECTION('',(0.0,0.0,-1.0));
#362=DIRECTION('',(-1.0,0.0,0.0));
#363=DIRECTION('',(0.0,0.0,1.0));
#364=DIRECTION('',(1.0,0.0,0.0));
#365=CARTESIAN_POINT('',(0.0,0.0,0.0));
#366=CARTESIAN_POINT('',(0.0,0.0,47.9721540944441));
#367=CARTESIAN_POINT('',(8.8789967045273,0.0,47.9721540944441));
#368=CARTESIAN_POINT('',(0.0,0.0,48.4));
#369=CARTESIAN_POINT('',(8.38423030848271,0.0,48.4));
#370=CARTESIAN_POINT('',(0.0,0.0,47.9));
#371=CARTESIAN_POINT('',(0.0,0.0,-0.399402315568175));
#372=CARTESIAN_POINT('',(15.9332467051705,0.0,-0.399402315568175));
#373=CARTESIAN_POINT('',(0.0,0.0,47.9721540944441));
#374=CARTESIAN_POINT('',(0.0,0.0,-0.89000000000003));
#375=CARTESIAN_POINT('',(15.6500000000001,0.0,-0.89000000000003));
#376=CARTESIAN_POINT('',(0.0,0.0,-0.399402315568175));
#377=CARTESIAN_POINT('',(0.0,0.0,-1.4));
#378=CARTESIAN_POINT('',(15.65,0.0,-1.4));
#379=CARTESIAN_POINT('',(0.0,0.0,0.0));
#380=CARTESIAN_POINT('',(0.0,0.0,-2.0));
#381=CARTESIAN_POINT('',(16.25,0.0,-2.0));
#382=CARTESIAN_POINT('',(0.0,0.0,-1.4));
#383=CARTESIAN_POINT('',(0.0,0.0,-2.0));
#384=CARTESIAN_POINT('',(22.99025,0.0,-2.0));
#385=CARTESIAN_POINT('',(0.0,16.25,-2.0));
#386=CARTESIAN_POINT('',(0.0,0.0,-9.58398933275902));
#387=CARTESIAN_POINT('',(22.99025,0.0,-9.58398933275902));
#388=CARTESIAN_POINT('',(0.0,0.0,0.0));
#389=CARTESIAN_POINT('',(0.0,0.0,-11.6));
#390=CARTESIAN_POINT('',(19.480757323931,0.0,-11.6));
#391=CARTESIAN_POINT('',(0.0,0.0,-9.58398933275902));
#392=CARTESIAN_POINT('',(0.0,0.0,-11.6));
#393=CARTESIAN_POINT('',(19.0,0.0,-11.6));
#394=CARTESIAN_POINT('',(0.0,19.480757323931,-11.6));
#395=CARTESIAN_POINT('',(0.0,0.0,-15.6));
#396=CARTESIAN_POINT('',(19.0,0.0,-15.6));
#397=CARTESIAN_POINT('',(0.0,0.0,0.0));
#398=CARTESIAN_POINT('',(0.0,0.0,-15.6));
#399=CARTESIAN_POINT('',(19.480757323931,0.0,-15.6));
#400=CARTESIAN_POINT('',(0.0,19.0,-15.6));
#401=CARTESIAN_POINT('',(0.0,0.0,-17.616010667241));
#402=CARTESIAN_POINT('',(22.99025,0.0,-17.616010667241));
#403=CARTESIAN_POINT('',(0.0,0.0,-15.6));
#404=CARTESIAN_POINT('',(0.0,0.0,-22.0));
#405=CARTESIAN_POINT('',(22.99025,0.0,-22.0));
#406=CARTESIAN_POINT('',(0.0,0.0,0.0));
#407=CARTESIAN_POINT('',(0.0,0.0,-22.0));
#408=CARTESIAN_POINT('',(20.8710678118655,0.0,-22.0));
#409=CARTESIAN_POINT('',(0.0,22.99025,-22.0));
#410=CARTESIAN_POINT('',(0.0,0.0,-23.4644660940673));
#411=CARTESIAN_POINT('',(17.3355339059327,0.0,-23.4644660940673));
#412=CARTESIAN_POINT('',(0.0,0.0,-27.0));
#413=CARTESIAN_POINT('',(0.0,0.0,-31.6355339059327));
#414=CARTESIAN_POINT('',(9.16446609406728,0.0,-31.6355339059327));
#415=CARTESIAN_POINT('',(0.0,0.0,-23.4644660940673));
#416=CARTESIAN_POINT('',(0.0,0.0,-35.1710678118655));
#417=CARTESIAN_POINT('',(7.7,0.0,-35.1710678118655));
#418=CARTESIAN_POINT('',(0.0,0.0,-35.1710678118655));
#419=CARTESIAN_POINT('',(0.0,0.0,-41.3));
#420=CARTESIAN_POINT('',(7.7,0.0,-41.3));
#421=CARTESIAN_POINT('',(0.0,0.0,0.0));
#422=CARTESIAN_POINT('',(0.0,7.7,-41.3));
#423=CARTESIAN_POINT('',(0.0,7.25675,48.4));
#424=MECHANICAL_DESIGN_GEOMETRIC_PRESENTATION_REPRESENTATION('',(#24),#425);
#425=(GEOMETRIC_REPRESENTATION_CONTEXT(3)GLOBAL_UNCERTAINTY_ASSIGNED_CONTEXT((#426))
     GLOBAL_UNIT_ASSIGNED_CONTEXT((#432,#428,#427))REPRESENTATION_CONTEXT('392','TOP_LEVEL_ASSEMBLY_PART'));
#426=UNCERTAINTY_MEASURE_WITH_UNIT(LENGTH_MEASURE(2.0E-5),#432,'DISTANCE_ACCURACY_VALUE',
     'Maximum Tolerance applied to model');
#427=(NAMED_UNIT(*)SI_UNIT($,.STERADIAN.)SOLID_ANGLE_UNIT());
#428=(CONVERSION_BASED_UNIT('DEGREE',#430)NAMED_UNIT(*)PLANE_ANGLE_UNIT());
#429=DIMENSIONAL_EXPONENTS(0.0,0.0,0.0,0.0,0.0,0.0,0.0);
#430=PLANE_ANGLE_MEASURE_WITH_UNIT(PLANE_ANGLE_MEASURE(0.0174532925),#431);
#431=(NAMED_UNIT(*)PLANE_ANGLE_UNIT()SI_UNIT($,.RADIAN.));
#432=(LENGTH_UNIT()NAMED_UNIT(*)SI_UNIT(.MILLI.,.METRE.));
#433=CARTESIAN_POINT('',(0.0,0.0,0.0));
#434=DIRECTION('',(0.0,0.0,1.0));
#435=DIRECTION('',(1.0,0.0,0.0));
#436=AXIS2_PLACEMENT_3D('PCS',#433,#434,#435);
#437=CARTESIAN_POINT('',(0.0,0.0,-0.29999999999999716));
#438=DIRECTION('',(0.0,0.0,1.0));
#439=DIRECTION('',(1.0,0.0,0.0));
#440=AXIS2_PLACEMENT_3D('MCS',#437,#438,#439);
#441=CARTESIAN_POINT('',(0.0,0.0,-41.3));
#442=DIRECTION('',(0.0,0.0,1.0));
#443=DIRECTION('',(1.0,0.0,0.0));
#444=AXIS2_PLACEMENT_3D('CSW',#441,#442,#443);
#445=CONSTRUCTIVE_GEOMETRY_REPRESENTATION('supplemental geometry',(#436,#440,#444),
     #425);
#446=CONSTRUCTIVE_GEOMETRY_REPRESENTATION_RELATIONSHIP('supplemental geometry',$,
     #22,#445);
ENDSEC;
END-ISO-10303-21;
