ISO-10303-21;
HEADER;
FILE_DESCRIPTION(
/* description */ ('3-D model version:1'),
/* implementation_level */ '2;1');
FILE_NAME(
/* name */ '392.55823-5050130',
/* time_stamp */ '2016-12-02T14:02:03',
/* author */ ('InteractiveCad'),
/* organization */ ('AB Sandvik Coromant'),
/* preprocessor_version */ 'ST-DEVELOPER v11',
/* originating_system */ 'SIEMENS UGS NX 6.0',
/* authorization */ '');
FILE_SCHEMA(('AUTOMOTIVE_DESIGN'));
ENDSEC;
DATA;
#10=SHAPE_REPRESENTATION_RELATIONSHIP('None','relationship between 392.55823_5050130uu_stp-None and 392.55823_505013\X\0D0uu_stp-None',
     #22,#11);
#11=ADVANCED_BREP_SHAPE_REPRESENTATION('392.55823_5050130uu_stp-None',(#32),#505);
#12=SHAPE_DEFINITION_REPRESENTATION(#13,#22);
#13=PRODUCT_DEFINITION_SHAPE('','',#14);
#14=PRODUCT_DEFINITION(' ','',#16,#15);
#15=PRODUCT_DEFINITION_CONTEXT('part definition',#21,'design');
#16=PRODUCT_DEFINITION_FORMATION_WITH_SPECIFIED_SOURCE(' ',' ',#18,.NOT_KNOWN.);
#17=PRODUCT_RELATED_PRODUCT_CATEGORY('part','',(#18));
#18=PRODUCT('392.55823_5050130uu_stp','392.55823_5050130uu_stp',' ',(#19));
#19=PRODUCT_CONTEXT(' ',#21,'mechanical');
#20=APPLICATION_PROTOCOL_DEFINITION('international standard','automotive_design',
     2001,#21);
#21=APPLICATION_CONTEXT('core data for automotive mechanical design processes');
#22=SHAPE_REPRESENTATION('392.55823_5050130uu_stp-None',(#289),#505);
#23=PRESENTATION_LAYER_ASSIGNMENT('1','Layer 1',(#32));
#24=STYLED_ITEM('',(#25),#32);
#25=PRESENTATION_STYLE_ASSIGNMENT((#26));
#26=SURFACE_STYLE_USAGE(.BOTH.,#27);
#27=SURFACE_SIDE_STYLE('',(#28));
#28=SURFACE_STYLE_FILL_AREA(#29);
#29=FILL_AREA_STYLE('',(#30));
#30=FILL_AREA_STYLE_COLOUR('',#31);
#31=COLOUR_RGB('TLS_NOCUT',0.499992370489052,0.499992370489052,0.499992370489052);
#32=MANIFOLD_SOLID_BREP('NOCUT',#33);
#33=CLOSED_SHELL('',(#94,#95,#96,#97,#98,#99,#100,#101,#102,#103,#104,#105,#106,
     #107,#108,#109,#110,#111,#112,#113,#114,#115,#116,#117));
#34=TOROIDAL_SURFACE('',#303,48.9865,1.0);
#35=TOROIDAL_SURFACE('',#319,48.9865,1.0);
#36=TOROIDAL_SURFACE('',#327,35.125,0.5);
#37=TOROIDAL_SURFACE('',#335,19.2132836633976,1.0);
#38=CYLINDRICAL_SURFACE('',#295,50.0);
#39=CYLINDRICAL_SURFACE('',#299,49.75);
#40=CYLINDRICAL_SURFACE('',#305,49.9865);
#41=CYLINDRICAL_SURFACE('',#311,42.5);
#42=CYLINDRICAL_SURFACE('',#317,49.9865);
#43=CYLINDRICAL_SURFACE('',#329,34.625);
#44=CONICAL_SURFACE('',#293,42.0,45.0000000000001);
#45=CONICAL_SURFACE('',#307,49.9865,60.1250000000002);
#46=CONICAL_SURFACE('',#315,43.0115980552164,60.1250000000002);
#47=CONICAL_SURFACE('',#323,36.95,74.9999999999999);
#48=CONICAL_SURFACE('',#331,34.625,35.0000000000002);
#49=CONICAL_SURFACE('',#333,34.925,8.29777777777763);
#50=FACE_BOUND('',#129,.T.);
#51=FACE_BOUND('',#130,.T.);
#52=FACE_BOUND('',#131,.T.);
#53=FACE_BOUND('',#132,.T.);
#54=FACE_BOUND('',#133,.T.);
#55=FACE_BOUND('',#134,.T.);
#56=FACE_BOUND('',#135,.T.);
#57=FACE_BOUND('',#136,.T.);
#58=FACE_BOUND('',#137,.T.);
#59=FACE_BOUND('',#138,.T.);
#60=FACE_BOUND('',#139,.T.);
#61=FACE_BOUND('',#140,.T.);
#62=FACE_BOUND('',#141,.T.);
#63=FACE_BOUND('',#142,.T.);
#64=FACE_BOUND('',#143,.T.);
#65=FACE_BOUND('',#144,.T.);
#66=FACE_BOUND('',#145,.T.);
#67=FACE_BOUND('',#146,.T.);
#68=FACE_BOUND('',#147,.T.);
#69=FACE_BOUND('',#148,.T.);
#70=FACE_BOUND('',#149,.T.);
#71=FACE_BOUND('',#150,.T.);
#72=FACE_BOUND('',#151,.T.);
#73=FACE_BOUND('',#152,.T.);
#74=FACE_BOUND('',#153,.T.);
#75=FACE_BOUND('',#154,.T.);
#76=FACE_BOUND('',#155,.T.);
#77=FACE_BOUND('',#156,.T.);
#78=FACE_BOUND('',#157,.T.);
#79=FACE_BOUND('',#158,.T.);
#80=FACE_BOUND('',#159,.T.);
#81=FACE_BOUND('',#160,.T.);
#82=FACE_BOUND('',#161,.T.);
#83=FACE_BOUND('',#162,.T.);
#84=FACE_BOUND('',#163,.T.);
#85=FACE_BOUND('',#164,.T.);
#86=FACE_BOUND('',#165,.T.);
#87=FACE_BOUND('',#166,.T.);
#88=FACE_BOUND('',#167,.T.);
#89=FACE_BOUND('',#168,.T.);
#90=FACE_BOUND('',#169,.T.);
#91=FACE_BOUND('',#170,.T.);
#92=FACE_BOUND('',#171,.T.);
#93=FACE_BOUND('',#172,.T.);
#94=ADVANCED_FACE('',(#126),#118,.F.);
#95=ADVANCED_FACE('',(#50,#51),#44,.T.);
#96=ADVANCED_FACE('',(#52,#53),#38,.T.);
#97=ADVANCED_FACE('',(#54,#55),#119,.F.);
#98=ADVANCED_FACE('',(#56,#57),#39,.T.);
#99=ADVANCED_FACE('',(#58,#59),#120,.F.);
#100=ADVANCED_FACE('',(#60,#61),#34,.T.);
#101=ADVANCED_FACE('',(#62,#63),#40,.T.);
#102=ADVANCED_FACE('',(#64,#65),#45,.T.);
#103=ADVANCED_FACE('',(#66,#67),#121,.F.);
#104=ADVANCED_FACE('',(#68,#69),#41,.T.);
#105=ADVANCED_FACE('',(#70,#71),#122,.F.);
#106=ADVANCED_FACE('',(#72,#73),#46,.T.);
#107=ADVANCED_FACE('',(#74,#75),#42,.T.);
#108=ADVANCED_FACE('',(#76,#77),#35,.T.);
#109=ADVANCED_FACE('',(#78,#79),#123,.F.);
#110=ADVANCED_FACE('',(#80,#81),#47,.F.);
#111=ADVANCED_FACE('',(#82,#83),#124,.F.);
#112=ADVANCED_FACE('',(#84,#85),#36,.F.);
#113=ADVANCED_FACE('',(#86,#87),#43,.T.);
#114=ADVANCED_FACE('',(#88,#89),#48,.T.);
#115=ADVANCED_FACE('',(#90,#91),#49,.T.);
#116=ADVANCED_FACE('',(#92,#93),#37,.T.);
#117=ADVANCED_FACE('',(#127),#125,.F.);
#118=PLANE('',#291);
#119=PLANE('',#297);
#120=PLANE('',#301);
#121=PLANE('',#309);
#122=PLANE('',#313);
#123=PLANE('',#321);
#124=PLANE('',#325);
#125=PLANE('',#336);
#126=FACE_OUTER_BOUND('',#128,.T.);
#127=FACE_OUTER_BOUND('',#173,.T.);
#128=EDGE_LOOP('',(#174));
#129=EDGE_LOOP('',(#175));
#130=EDGE_LOOP('',(#176));
#131=EDGE_LOOP('',(#177));
#132=EDGE_LOOP('',(#178));
#133=EDGE_LOOP('',(#179));
#134=EDGE_LOOP('',(#180));
#135=EDGE_LOOP('',(#181));
#136=EDGE_LOOP('',(#182));
#137=EDGE_LOOP('',(#183));
#138=EDGE_LOOP('',(#184));
#139=EDGE_LOOP('',(#185));
#140=EDGE_LOOP('',(#186));
#141=EDGE_LOOP('',(#187));
#142=EDGE_LOOP('',(#188));
#143=EDGE_LOOP('',(#189));
#144=EDGE_LOOP('',(#190));
#145=EDGE_LOOP('',(#191));
#146=EDGE_LOOP('',(#192));
#147=EDGE_LOOP('',(#193));
#148=EDGE_LOOP('',(#194));
#149=EDGE_LOOP('',(#195));
#150=EDGE_LOOP('',(#196));
#151=EDGE_LOOP('',(#197));
#152=EDGE_LOOP('',(#198));
#153=EDGE_LOOP('',(#199));
#154=EDGE_LOOP('',(#200));
#155=EDGE_LOOP('',(#201));
#156=EDGE_LOOP('',(#202));
#157=EDGE_LOOP('',(#203));
#158=EDGE_LOOP('',(#204));
#159=EDGE_LOOP('',(#205));
#160=EDGE_LOOP('',(#206));
#161=EDGE_LOOP('',(#207));
#162=EDGE_LOOP('',(#208));
#163=EDGE_LOOP('',(#209));
#164=EDGE_LOOP('',(#210));
#165=EDGE_LOOP('',(#211));
#166=EDGE_LOOP('',(#212));
#167=EDGE_LOOP('',(#213));
#168=EDGE_LOOP('',(#214));
#169=EDGE_LOOP('',(#215));
#170=EDGE_LOOP('',(#216));
#171=EDGE_LOOP('',(#217));
#172=EDGE_LOOP('',(#218));
#173=EDGE_LOOP('',(#219));
#174=ORIENTED_EDGE('',*,*,#243,.F.);
#175=ORIENTED_EDGE('',*,*,#244,.F.);
#176=ORIENTED_EDGE('',*,*,#243,.T.);
#177=ORIENTED_EDGE('',*,*,#245,.F.);
#178=ORIENTED_EDGE('',*,*,#244,.T.);
#179=ORIENTED_EDGE('',*,*,#246,.F.);
#180=ORIENTED_EDGE('',*,*,#245,.T.);
#181=ORIENTED_EDGE('',*,*,#247,.F.);
#182=ORIENTED_EDGE('',*,*,#246,.T.);
#183=ORIENTED_EDGE('',*,*,#248,.F.);
#184=ORIENTED_EDGE('',*,*,#247,.T.);
#185=ORIENTED_EDGE('',*,*,#249,.F.);
#186=ORIENTED_EDGE('',*,*,#248,.T.);
#187=ORIENTED_EDGE('',*,*,#250,.F.);
#188=ORIENTED_EDGE('',*,*,#249,.T.);
#189=ORIENTED_EDGE('',*,*,#251,.F.);
#190=ORIENTED_EDGE('',*,*,#250,.T.);
#191=ORIENTED_EDGE('',*,*,#252,.F.);
#192=ORIENTED_EDGE('',*,*,#251,.T.);
#193=ORIENTED_EDGE('',*,*,#253,.F.);
#194=ORIENTED_EDGE('',*,*,#252,.T.);
#195=ORIENTED_EDGE('',*,*,#254,.F.);
#196=ORIENTED_EDGE('',*,*,#253,.T.);
#197=ORIENTED_EDGE('',*,*,#255,.F.);
#198=ORIENTED_EDGE('',*,*,#254,.T.);
#199=ORIENTED_EDGE('',*,*,#256,.F.);
#200=ORIENTED_EDGE('',*,*,#255,.T.);
#201=ORIENTED_EDGE('',*,*,#257,.F.);
#202=ORIENTED_EDGE('',*,*,#256,.T.);
#203=ORIENTED_EDGE('',*,*,#258,.F.);
#204=ORIENTED_EDGE('',*,*,#257,.T.);
#205=ORIENTED_EDGE('',*,*,#259,.F.);
#206=ORIENTED_EDGE('',*,*,#258,.T.);
#207=ORIENTED_EDGE('',*,*,#260,.F.);
#208=ORIENTED_EDGE('',*,*,#259,.T.);
#209=ORIENTED_EDGE('',*,*,#261,.F.);
#210=ORIENTED_EDGE('',*,*,#260,.T.);
#211=ORIENTED_EDGE('',*,*,#262,.F.);
#212=ORIENTED_EDGE('',*,*,#261,.T.);
#213=ORIENTED_EDGE('',*,*,#263,.F.);
#214=ORIENTED_EDGE('',*,*,#262,.T.);
#215=ORIENTED_EDGE('',*,*,#264,.F.);
#216=ORIENTED_EDGE('',*,*,#263,.T.);
#217=ORIENTED_EDGE('',*,*,#265,.F.);
#218=ORIENTED_EDGE('',*,*,#264,.T.);
#219=ORIENTED_EDGE('',*,*,#265,.T.);
#220=VERTEX_POINT('',#435);
#221=VERTEX_POINT('',#438);
#222=VERTEX_POINT('',#441);
#223=VERTEX_POINT('',#444);
#224=VERTEX_POINT('',#447);
#225=VERTEX_POINT('',#450);
#226=VERTEX_POINT('',#453);
#227=VERTEX_POINT('',#456);
#228=VERTEX_POINT('',#459);
#229=VERTEX_POINT('',#462);
#230=VERTEX_POINT('',#465);
#231=VERTEX_POINT('',#468);
#232=VERTEX_POINT('',#471);
#233=VERTEX_POINT('',#474);
#234=VERTEX_POINT('',#477);
#235=VERTEX_POINT('',#480);
#236=VERTEX_POINT('',#483);
#237=VERTEX_POINT('',#486);
#238=VERTEX_POINT('',#489);
#239=VERTEX_POINT('',#492);
#240=VERTEX_POINT('',#495);
#241=VERTEX_POINT('',#498);
#242=VERTEX_POINT('',#501);
#243=EDGE_CURVE('',#220,#220,#266,.T.);
#244=EDGE_CURVE('',#221,#221,#267,.T.);
#245=EDGE_CURVE('',#222,#222,#268,.T.);
#246=EDGE_CURVE('',#223,#223,#269,.T.);
#247=EDGE_CURVE('',#224,#224,#270,.T.);
#248=EDGE_CURVE('',#225,#225,#271,.T.);
#249=EDGE_CURVE('',#226,#226,#272,.T.);
#250=EDGE_CURVE('',#227,#227,#273,.T.);
#251=EDGE_CURVE('',#228,#228,#274,.T.);
#252=EDGE_CURVE('',#229,#229,#275,.T.);
#253=EDGE_CURVE('',#230,#230,#276,.T.);
#254=EDGE_CURVE('',#231,#231,#277,.T.);
#255=EDGE_CURVE('',#232,#232,#278,.T.);
#256=EDGE_CURVE('',#233,#233,#279,.T.);
#257=EDGE_CURVE('',#234,#234,#280,.T.);
#258=EDGE_CURVE('',#235,#235,#281,.T.);
#259=EDGE_CURVE('',#236,#236,#282,.T.);
#260=EDGE_CURVE('',#237,#237,#283,.T.);
#261=EDGE_CURVE('',#238,#238,#284,.T.);
#262=EDGE_CURVE('',#239,#239,#285,.T.);
#263=EDGE_CURVE('',#240,#240,#286,.T.);
#264=EDGE_CURVE('',#241,#241,#287,.T.);
#265=EDGE_CURVE('',#242,#242,#288,.T.);
#266=CIRCLE('',#290,42.0);
#267=CIRCLE('',#292,50.0);
#268=CIRCLE('',#294,50.0);
#269=CIRCLE('',#296,49.75);
#270=CIRCLE('',#298,49.75);
#271=CIRCLE('',#300,48.9865);
#272=CIRCLE('',#302,49.9865);
#273=CIRCLE('',#304,49.9865);
#274=CIRCLE('',#306,43.0115980552164);
#275=CIRCLE('',#308,42.5);
#276=CIRCLE('',#310,42.5);
#277=CIRCLE('',#312,43.0115980552164);
#278=CIRCLE('',#314,49.9865);
#279=CIRCLE('',#316,49.9865);
#280=CIRCLE('',#318,48.9865);
#281=CIRCLE('',#320,36.95);
#282=CIRCLE('',#322,35.8303847577293);
#283=CIRCLE('',#324,35.125);
#284=CIRCLE('',#326,34.625);
#285=CIRCLE('',#328,34.625);
#286=CIRCLE('',#330,34.925);
#287=CIRCLE('',#332,20.2028150505912);
#288=CIRCLE('',#334,19.2132836633976);
#289=AXIS2_PLACEMENT_3D('',#433,#337,#338);
#290=AXIS2_PLACEMENT_3D('',#434,#339,#340);
#291=AXIS2_PLACEMENT_3D('',#436,#341,#342);
#292=AXIS2_PLACEMENT_3D('',#437,#343,#344);
#293=AXIS2_PLACEMENT_3D('',#439,#345,#346);
#294=AXIS2_PLACEMENT_3D('',#440,#347,#348);
#295=AXIS2_PLACEMENT_3D('',#442,#349,#350);
#296=AXIS2_PLACEMENT_3D('',#443,#351,#352);
#297=AXIS2_PLACEMENT_3D('',#445,#353,#354);
#298=AXIS2_PLACEMENT_3D('',#446,#355,#356);
#299=AXIS2_PLACEMENT_3D('',#448,#357,#358);
#300=AXIS2_PLACEMENT_3D('',#449,#359,#360);
#301=AXIS2_PLACEMENT_3D('',#451,#361,#362);
#302=AXIS2_PLACEMENT_3D('',#452,#363,#364);
#303=AXIS2_PLACEMENT_3D('',#454,#365,#366);
#304=AXIS2_PLACEMENT_3D('',#455,#367,#368);
#305=AXIS2_PLACEMENT_3D('',#457,#369,#370);
#306=AXIS2_PLACEMENT_3D('',#458,#371,#372);
#307=AXIS2_PLACEMENT_3D('',#460,#373,#374);
#308=AXIS2_PLACEMENT_3D('',#461,#375,#376);
#309=AXIS2_PLACEMENT_3D('',#463,#377,#378);
#310=AXIS2_PLACEMENT_3D('',#464,#379,#380);
#311=AXIS2_PLACEMENT_3D('',#466,#381,#382);
#312=AXIS2_PLACEMENT_3D('',#467,#383,#384);
#313=AXIS2_PLACEMENT_3D('',#469,#385,#386);
#314=AXIS2_PLACEMENT_3D('',#470,#387,#388);
#315=AXIS2_PLACEMENT_3D('',#472,#389,#390);
#316=AXIS2_PLACEMENT_3D('',#473,#391,#392);
#317=AXIS2_PLACEMENT_3D('',#475,#393,#394);
#318=AXIS2_PLACEMENT_3D('',#476,#395,#396);
#319=AXIS2_PLACEMENT_3D('',#478,#397,#398);
#320=AXIS2_PLACEMENT_3D('',#479,#399,#400);
#321=AXIS2_PLACEMENT_3D('',#481,#401,#402);
#322=AXIS2_PLACEMENT_3D('',#482,#403,#404);
#323=AXIS2_PLACEMENT_3D('',#484,#405,#406);
#324=AXIS2_PLACEMENT_3D('',#485,#407,#408);
#325=AXIS2_PLACEMENT_3D('',#487,#409,#410);
#326=AXIS2_PLACEMENT_3D('',#488,#411,#412);
#327=AXIS2_PLACEMENT_3D('',#490,#413,#414);
#328=AXIS2_PLACEMENT_3D('',#491,#415,#416);
#329=AXIS2_PLACEMENT_3D('',#493,#417,#418);
#330=AXIS2_PLACEMENT_3D('',#494,#419,#420);
#331=AXIS2_PLACEMENT_3D('',#496,#421,#422);
#332=AXIS2_PLACEMENT_3D('',#497,#423,#424);
#333=AXIS2_PLACEMENT_3D('',#499,#425,#426);
#334=AXIS2_PLACEMENT_3D('',#500,#427,#428);
#335=AXIS2_PLACEMENT_3D('',#502,#429,#430);
#336=AXIS2_PLACEMENT_3D('',#503,#431,#432);
#337=DIRECTION('',(0.0,0.0,1.0));
#338=DIRECTION('',(1.0,0.0,0.0));
#339=DIRECTION('',(3.48989555874312E-17,1.74494777937156E-17,1.0));
#340=DIRECTION('',(1.0,0.0,0.0));
#341=DIRECTION('',(3.48989555874312E-17,1.74494777937156E-17,1.0));
#342=DIRECTION('',(1.0,0.0,-2.77555756156289E-17));
#343=DIRECTION('',(3.48989555874312E-17,1.74494777937156E-17,1.0));
#344=DIRECTION('',(1.0,0.0,0.0));
#345=DIRECTION('',(3.48989555874312E-17,1.74494777937156E-17,1.0));
#346=DIRECTION('',(1.0,-7.39320516079551E-34,0.0));
#347=DIRECTION('',(3.48989555874312E-17,1.74494777937156E-17,1.0));
#348=DIRECTION('',(1.0,0.0,0.0));
#349=DIRECTION('',(3.48989555874312E-17,1.74494777937156E-17,1.0));
#350=DIRECTION('',(1.0,0.0,-3.48989555874312E-17));
#351=DIRECTION('',(3.48989555874312E-17,1.74494777937156E-17,1.0));
#352=DIRECTION('',(1.0,0.0,0.0));
#353=DIRECTION('',(-3.48989555874312E-17,-1.74494777937156E-17,-1.0));
#354=DIRECTION('',(-1.0,0.0,3.46944695195361E-17));
#355=DIRECTION('',(3.48989555874312E-17,1.74494777937156E-17,1.0));
#356=DIRECTION('',(1.0,0.0,0.0));
#357=DIRECTION('',(3.48989555874312E-17,1.74494777937156E-17,1.0));
#358=DIRECTION('',(1.0,0.0,-3.48989555874312E-17));
#359=DIRECTION('',(3.48989555874312E-17,1.74494777937156E-17,1.0));
#360=DIRECTION('',(1.0,0.0,0.0));
#361=DIRECTION('',(-3.48989555874312E-17,-1.74494777937156E-17,-1.0));
#362=DIRECTION('',(-1.0,0.0,3.46944695195361E-17));
#363=DIRECTION('',(3.48989555874312E-17,1.74494777937156E-17,1.0));
#364=DIRECTION('',(1.0,0.0,0.0));
#365=DIRECTION('',(3.48989555874312E-17,1.74494777937156E-17,1.0));
#366=DIRECTION('',(1.0,0.0,0.0));
#367=DIRECTION('',(3.48989555874312E-17,1.74494777937156E-17,1.0));
#368=DIRECTION('',(1.0,0.0,-6.94076791124326E-17));
#369=DIRECTION('',(3.48989555874312E-17,1.74494777937156E-17,1.0));
#370=DIRECTION('',(1.0,0.0,-3.48989555874312E-17));
#371=DIRECTION('',(3.48989555874312E-17,1.74494777937156E-17,1.0));
#372=DIRECTION('',(1.0,0.0,0.0));
#373=DIRECTION('',(-3.48989555874312E-17,-1.74494777937156E-17,-1.0));
#374=DIRECTION('',(-1.0,1.61318943789585E-34,0.0));
#375=DIRECTION('',(3.48989555874312E-17,1.74494777937156E-17,1.0));
#376=DIRECTION('',(1.0,0.0,0.0));
#377=DIRECTION('',(-3.48989555874312E-17,-1.74494777937156E-17,-1.0));
#378=DIRECTION('',(-1.0,0.0,3.46944695195361E-17));
#379=DIRECTION('',(3.48989555874312E-17,1.74494777937156E-17,1.0));
#380=DIRECTION('',(1.0,0.0,0.0));
#381=DIRECTION('',(3.48989555874312E-17,1.74494777937156E-17,1.0));
#382=DIRECTION('',(1.0,0.0,-3.48989555874312E-17));
#383=DIRECTION('',(3.48989555874312E-17,1.74494777937156E-17,1.0));
#384=DIRECTION('',(1.0,0.0,0.0));
#385=DIRECTION('',(3.48989555874312E-17,1.74494777937156E-17,1.0));
#386=DIRECTION('',(1.0,0.0,-3.46944695195361E-17));
#387=DIRECTION('',(3.48989555874312E-17,1.74494777937156E-17,1.0));
#388=DIRECTION('',(1.0,0.0,-6.94076791124326E-17));
#389=DIRECTION('',(3.48989555874312E-17,1.74494777937156E-17,1.0));
#390=DIRECTION('',(1.0,2.42924572624034E-34,-9.14127034545611E-17));
#391=DIRECTION('',(3.48989555874312E-17,1.74494777937156E-17,1.0));
#392=DIRECTION('',(1.0,0.0,-3.47038395562163E-17));
#393=DIRECTION('',(3.48989555874312E-17,1.74494777937156E-17,1.0));
#394=DIRECTION('',(1.0,0.0,-3.48989555874312E-17));
#395=DIRECTION('',(3.48989555874312E-17,1.74494777937156E-17,1.0));
#396=DIRECTION('',(1.0,0.0,-3.54122763613813E-17));
#397=DIRECTION('',(3.48989555874312E-17,1.74494777937156E-17,1.0));
#398=DIRECTION('',(1.0,0.0,-3.47038395562163E-17));
#399=DIRECTION('',(3.48989555874312E-17,1.74494777937156E-17,1.0));
#400=DIRECTION('',(1.0,0.0,-3.52108959941165E-17));
#401=DIRECTION('',(-3.48989555874312E-17,-1.74494777937156E-17,-1.0));
#402=DIRECTION('',(-1.0,0.0,3.49113099540332E-17));
#403=DIRECTION('',(3.48989555874312E-17,1.74494777937156E-17,1.0));
#404=DIRECTION('',(1.0,0.0,-3.63111536697061E-17));
#405=DIRECTION('',(3.48989555874312E-17,1.74494777937156E-17,1.0));
#406=DIRECTION('',(1.0,1.23755918934693E-34,-4.41850405973232E-17));
#407=DIRECTION('',(3.48989555874312E-17,1.74494777937156E-17,1.0));
#408=DIRECTION('',(1.0,0.0,-3.70403589176542E-17));
#409=DIRECTION('',(-3.48989555874312E-17,-1.74494777937156E-17,-1.0));
#410=DIRECTION('',(-1.0,0.0,3.49113099540332E-17));
#411=DIRECTION('',(3.48989555874312E-17,1.74494777937156E-17,1.0));
#412=DIRECTION('',(1.0,0.0,-3.757523774679E-17));
#413=DIRECTION('',(3.48989555874312E-17,1.74494777937156E-17,1.0));
#414=DIRECTION('',(1.0,0.0,-3.65204942310906E-17));
#415=DIRECTION('',(3.48989555874312E-17,1.74494777937156E-17,1.0));
#416=DIRECTION('',(1.0,0.0,-3.44439679345575E-17));
#417=DIRECTION('',(3.48989555874312E-17,1.74494777937156E-17,1.0));
#418=DIRECTION('',(1.0,0.0,-3.48989555874312E-17));
#419=DIRECTION('',(3.48989555874312E-17,1.74494777937156E-17,1.0));
#420=DIRECTION('',(1.0,0.0,-3.48989555874312E-17));
#421=DIRECTION('',(3.48989555874312E-17,1.74494777937156E-17,1.0));
#422=DIRECTION('',(1.0,-7.78082654903865E-35,2.05824041801703E-17));
#423=DIRECTION('',(3.48989555874312E-17,1.74494777937156E-17,1.0));
#424=DIRECTION('',(1.0,0.0,0.0));
#425=DIRECTION('',(-3.48989555874312E-17,-1.74494777937156E-17,-1.0));
#426=DIRECTION('',(-1.0,1.20690394958187E-34,6.91656199600733E-18));
#427=DIRECTION('',(3.48989555874312E-17,1.74494777937156E-17,1.0));
#428=DIRECTION('',(1.0,0.0,0.0));
#429=DIRECTION('',(3.48989555874312E-17,1.74494777937156E-17,1.0));
#430=DIRECTION('',(1.0,0.0,0.0));
#431=DIRECTION('',(-3.48989555874312E-17,-1.74494777937156E-17,-1.0));
#432=DIRECTION('',(-1.0,0.0,4.16333634234434E-17));
#433=CARTESIAN_POINT('',(0.0,0.0,0.0));
#434=CARTESIAN_POINT('',(-4.53686422636606E-15,-2.26843211318303E-15,-130.0));
#435=CARTESIAN_POINT('',(42.0,-2.26843211318303E-15,-130.0));
#436=CARTESIAN_POINT('',(-16.0696902421635,-19.1511110779744,-130.0));
#437=CARTESIAN_POINT('',(-4.25767258166661E-15,-2.12883629083331E-15,-122.0));
#438=CARTESIAN_POINT('',(50.0,-2.12883629083331E-15,-122.0));
#439=CARTESIAN_POINT('',(-4.53686422636606E-15,-2.26843211318303E-15,-130.0));
#440=CARTESIAN_POINT('',(-1.53555404584697E-15,-7.67777022923487E-16,-44.0));
#441=CARTESIAN_POINT('',(50.0,-7.67777022923487E-16,-44.0));
#442=CARTESIAN_POINT('',(0.0,0.0,0.0));
#443=CARTESIAN_POINT('',(-1.53555404584697E-15,-7.67777022923487E-16,-44.0));
#444=CARTESIAN_POINT('',(49.75,-7.67777022923487E-16,-44.0));
#445=CARTESIAN_POINT('',(-32.139380484327,-38.3022221559489,-44.0));
#446=CARTESIAN_POINT('',(-1.32616031232239E-15,-6.63080156161194E-16,-38.0));
#447=CARTESIAN_POINT('',(49.75,-6.63080156161194E-16,-38.0));
#448=CARTESIAN_POINT('',(0.0,0.0,0.0));
#449=CARTESIAN_POINT('',(-1.32616031232239E-15,-6.63080156161194E-16,-38.0));
#450=CARTESIAN_POINT('',(48.9865,-6.63080156161194E-16,-38.0));
#451=CARTESIAN_POINT('',(-31.9786835819053,-38.1107110451692,-38.0));
#452=CARTESIAN_POINT('',(-1.29126135673496E-15,-6.45630678367479E-16,-37.0));
#453=CARTESIAN_POINT('',(49.9865,-6.45630678367479E-16,-37.0));
#454=CARTESIAN_POINT('',(0.0,0.0,-37.0));
#455=CARTESIAN_POINT('',(-1.07163168414431E-15,-5.35815842072156E-16,-30.7066978396986));
#456=CARTESIAN_POINT('',(49.9865,-5.35815842072156E-16,-30.7066978396986));
#457=CARTESIAN_POINT('',(0.0,0.0,0.0));
#458=CARTESIAN_POINT('',(-9.31802114184415E-16,-4.65901057092208E-16,-26.7));
#459=CARTESIAN_POINT('',(43.0115980552164,-4.65901057092208E-16,-26.7));
#460=CARTESIAN_POINT('',(-1.07163168414431E-15,-5.35815842072156E-16,-30.7066978396986));
#461=CARTESIAN_POINT('',(-9.31802114184415E-16,-4.65901057092207E-16,-26.7));
#462=CARTESIAN_POINT('',(42.5,-4.65901057092207E-16,-26.7));
#463=CARTESIAN_POINT('',(-27.6473223027108,-32.9487956798656,-26.7));
#464=CARTESIAN_POINT('',(-6.87509425072395E-16,-3.43754712536198E-16,-19.7));
#465=CARTESIAN_POINT('',(42.5,-3.43754712536198E-16,-19.7));
#466=CARTESIAN_POINT('',(0.0,0.0,0.0));
#467=CARTESIAN_POINT('',(-6.87509425072395E-16,-3.43754712536198E-16,-19.7));
#468=CARTESIAN_POINT('',(43.0115980552164,-3.43754712536198E-16,-19.7));
#469=CARTESIAN_POINT('',(-27.3184734116779,-32.5568888325566,-19.7));
#470=CARTESIAN_POINT('',(-5.47679855112498E-16,-2.73839927556249E-16,-15.6933021603014));
#471=CARTESIAN_POINT('',(49.9865,-2.73839927556249E-16,-15.6933021603014));
#472=CARTESIAN_POINT('',(-6.87509425072395E-16,-3.43754712536198E-16,-19.7));
#473=CARTESIAN_POINT('',(-8.72473889685783E-17,-4.36236944842891E-17,-2.5));
#474=CARTESIAN_POINT('',(49.9865,-4.36236944842891E-17,-2.50000000000001));
#475=CARTESIAN_POINT('',(0.0,0.0,0.0));
#476=CARTESIAN_POINT('',(-5.2348433381147E-17,-2.61742166905735E-17,-1.5));
#477=CARTESIAN_POINT('',(48.9865,-2.61742166905735E-17,-1.50000000000001));
#478=CARTESIAN_POINT('',(0.0,0.0,-2.5));
#479=CARTESIAN_POINT('',(-5.23484333811469E-17,-2.61742166905735E-17,-1.5));
#480=CARTESIAN_POINT('',(36.95,-2.61742166905735E-17,-1.5));
#481=CARTESIAN_POINT('',(-31.4879152419097,-37.5258361128478,-1.5));
#482=CARTESIAN_POINT('',(-6.28181200573763E-17,-3.14090600286881E-17,-1.8));
#483=CARTESIAN_POINT('',(35.8303847577293,-3.14090600286881E-17,-1.8));
#484=CARTESIAN_POINT('',(-5.23484333811469E-17,-2.61742166905735E-17,-1.5));
#485=CARTESIAN_POINT('',(-6.28181200573763E-17,-3.14090600286882E-17,-1.8));
#486=CARTESIAN_POINT('',(35.125,-3.14090600286882E-17,-1.8));
#487=CARTESIAN_POINT('',(-23.0313273725699,-27.4476671384735,-1.8));
#488=CARTESIAN_POINT('',(-4.53686422636607E-17,-2.26843211318304E-17,-1.3));
#489=CARTESIAN_POINT('',(34.625,-2.26843211318304E-17,-1.3));
#490=CARTESIAN_POINT('',(0.0,0.0,-1.3));
#491=CARTESIAN_POINT('',(-1.49522621578711E-17,-7.47613107893556E-18,-0.428444402022625));
#492=CARTESIAN_POINT('',(34.625,-7.47613107893556E-18,-0.428444402022626));
#493=CARTESIAN_POINT('',(0.0,0.0,0.0));
#494=CARTESIAN_POINT('',(-4.36343119360244E-32,-2.18171559680122E-32,-1.25030423408256E-15));
#495=CARTESIAN_POINT('',(34.925,-2.18171559680122E-32,-2.46915025797359E-15));
#496=CARTESIAN_POINT('',(-1.49522621578711E-17,-7.47613107893556E-18,-0.428444402022625));
#497=CARTESIAN_POINT('',(3.52285126447495E-15,1.76142563223748E-15,100.944317822041));
#498=CARTESIAN_POINT('',(20.2028150505912,1.76142563223748E-15,100.944317822041));
#499=CARTESIAN_POINT('',(-4.36343119360244E-32,-2.18171559680122E-32,-1.25030423408256E-15));
#500=CARTESIAN_POINT('',(3.5527136788005E-15,1.77635683940025E-15,101.8));
#501=CARTESIAN_POINT('',(19.2132836633976,1.77635683940025E-15,101.8));
#502=CARTESIAN_POINT('',(3.46944695195361E-15,1.73472347597681E-15,100.8));
#503=CARTESIAN_POINT('',(-8.04014811886166,-9.58187540564295,101.8));
#504=MECHANICAL_DESIGN_GEOMETRIC_PRESENTATION_REPRESENTATION('',(#24),#505);
#505=(GEOMETRIC_REPRESENTATION_CONTEXT(3)GLOBAL_UNCERTAINTY_ASSIGNED_CONTEXT((#506))
     GLOBAL_UNIT_ASSIGNED_CONTEXT((#512,#508,#507))REPRESENTATION_CONTEXT('392','TOP_LEVEL_ASSEMBLY_PART'));
#506=UNCERTAINTY_MEASURE_WITH_UNIT(LENGTH_MEASURE(2.0E-5),#512,'DISTANCE_ACCURACY_VALUE',
     'Maximum Tolerance applied to model');
#507=(NAMED_UNIT(*)SI_UNIT($,.STERADIAN.)SOLID_ANGLE_UNIT());
#508=(CONVERSION_BASED_UNIT('DEGREE',#510)NAMED_UNIT(*)PLANE_ANGLE_UNIT());
#509=DIMENSIONAL_EXPONENTS(0.0,0.0,0.0,0.0,0.0,0.0,0.0);
#510=PLANE_ANGLE_MEASURE_WITH_UNIT(PLANE_ANGLE_MEASURE(0.0174532925),#511);
#511=(NAMED_UNIT(*)PLANE_ANGLE_UNIT()SI_UNIT($,.RADIAN.));
#512=(LENGTH_UNIT()NAMED_UNIT(*)SI_UNIT(.MILLI.,.METRE.));
#513=CARTESIAN_POINT('',(0.0,0.0,0.0));
#514=DIRECTION('',(0.0,0.0,1.0));
#515=DIRECTION('',(1.0,0.0,0.0));
#516=AXIS2_PLACEMENT_3D('PCS',#513,#514,#515);
#517=CARTESIAN_POINT('',(0.0,0.0,0.0));
#518=DIRECTION('',(0.0,0.0,1.0));
#519=DIRECTION('',(1.0,0.0,0.0));
#520=AXIS2_PLACEMENT_3D('MCS',#517,#518,#519);
#521=CARTESIAN_POINT('',(0.0,0.0,-130.0));
#522=DIRECTION('',(0.0,0.0,1.0));
#523=DIRECTION('',(1.0,0.0,0.0));
#524=AXIS2_PLACEMENT_3D('CSW',#521,#522,#523);
#525=CONSTRUCTIVE_GEOMETRY_REPRESENTATION('supplemental geometry',(#516,#520,#524),
     #505);
#526=CONSTRUCTIVE_GEOMETRY_REPRESENTATION_RELATIONSHIP('supplemental geometry',$,
     #22,#525);
ENDSEC;
END-ISO-10303-21;
