ISO-10303-21;
HEADER;
FILE_DESCRIPTION(
/* description */ ('3-D model version:1'),
/* implementation_level */ '2;1');
FILE_NAME(
/* name */ '392.55823-5025100',
/* time_stamp */ '2016-12-02T14:02:03',
/* author */ ('InteractiveCad'),
/* organization */ ('AB Sandvik Coromant'),
/* preprocessor_version */ 'ST-DEVELOPER v11',
/* originating_system */ 'SIEMENS UGS NX 6.0',
/* authorization */ '');
FILE_SCHEMA(('AUTOMOTIVE_DESIGN'));
ENDSEC;
DATA;
#10=SHAPE_REPRESENTATION_RELATIONSHIP('None','relationship between 392.55823_5025100uu_stp-None and 392.55823_502510\X\0D0uu_stp-None',
     #22,#11);
#11=ADVANCED_BREP_SHAPE_REPRESENTATION('392.55823_5025100uu_stp-None',(#32),#465);
#12=SHAPE_DEFINITION_REPRESENTATION(#13,#22);
#13=PRODUCT_DEFINITION_SHAPE('','',#14);
#14=PRODUCT_DEFINITION(' ','',#16,#15);
#15=PRODUCT_DEFINITION_CONTEXT('part definition',#21,'design');
#16=PRODUCT_DEFINITION_FORMATION_WITH_SPECIFIED_SOURCE(' ',' ',#18,.NOT_KNOWN.);
#17=PRODUCT_RELATED_PRODUCT_CATEGORY('part','',(#18));
#18=PRODUCT('392.55823_5025100uu_stp','392.55823_5025100uu_stp',' ',(#19));
#19=PRODUCT_CONTEXT(' ',#21,'mechanical');
#20=APPLICATION_PROTOCOL_DEFINITION('international standard','automotive_design',
     2001,#21);
#21=APPLICATION_CONTEXT('core data for automotive mechanical design processes');
#22=SHAPE_REPRESENTATION('392.55823_5025100uu_stp-None',(#267),#465);
#23=PRESENTATION_LAYER_ASSIGNMENT('1','Layer 1',(#32));
#24=STYLED_ITEM('',(#25),#32);
#25=PRESENTATION_STYLE_ASSIGNMENT((#26));
#26=SURFACE_STYLE_USAGE(.BOTH.,#27);
#27=SURFACE_SIDE_STYLE('',(#28));
#28=SURFACE_STYLE_FILL_AREA(#29);
#29=FILL_AREA_STYLE('',(#30));
#30=FILL_AREA_STYLE_COLOUR('',#31);
#31=COLOUR_RGB('TLS_NOCUT',0.499992370489052,0.499992370489052,0.499992370489052);
#32=MANIFOLD_SOLID_BREP('NOCUT',#33);
#33=CLOSED_SHELL('',(#89,#90,#91,#92,#93,#94,#95,#96,#97,#98,#99,#100,#101,#102,
     #103,#104,#105,#106,#107,#108,#109,#110));
#34=CYLINDRICAL_SURFACE('',#277,34.625);
#35=CYLINDRICAL_SURFACE('',#289,49.9865);
#36=CYLINDRICAL_SURFACE('',#295,42.5);
#37=CYLINDRICAL_SURFACE('',#301,49.9865);
#38=CYLINDRICAL_SURFACE('',#307,32.5);
#39=CONICAL_SURFACE('',#273,20.2028150505912,8.29777777777764);
#40=CONICAL_SURFACE('',#275,34.925,34.9999999999995);
#41=CONICAL_SURFACE('',#283,35.8303847577293,75.0000000000005);
#42=CONICAL_SURFACE('',#291,49.9865,60.125);
#43=CONICAL_SURFACE('',#299,43.0115980552163,60.1250000000002);
#44=CONICAL_SURFACE('',#309,32.5,45.0);
#45=TOROIDAL_SURFACE('',#271,19.2132836633976,1.0);
#46=TOROIDAL_SURFACE('',#279,35.125,0.5);
#47=TOROIDAL_SURFACE('',#287,48.9865,1.0);
#48=TOROIDAL_SURFACE('',#303,48.9865,1.0);
#49=FACE_BOUND('',#121,.T.);
#50=FACE_BOUND('',#122,.T.);
#51=FACE_BOUND('',#123,.T.);
#52=FACE_BOUND('',#124,.T.);
#53=FACE_BOUND('',#125,.T.);
#54=FACE_BOUND('',#126,.T.);
#55=FACE_BOUND('',#127,.T.);
#56=FACE_BOUND('',#128,.T.);
#57=FACE_BOUND('',#129,.T.);
#58=FACE_BOUND('',#130,.T.);
#59=FACE_BOUND('',#131,.T.);
#60=FACE_BOUND('',#132,.T.);
#61=FACE_BOUND('',#133,.T.);
#62=FACE_BOUND('',#134,.T.);
#63=FACE_BOUND('',#135,.T.);
#64=FACE_BOUND('',#136,.T.);
#65=FACE_BOUND('',#137,.T.);
#66=FACE_BOUND('',#138,.T.);
#67=FACE_BOUND('',#139,.T.);
#68=FACE_BOUND('',#140,.T.);
#69=FACE_BOUND('',#141,.T.);
#70=FACE_BOUND('',#142,.T.);
#71=FACE_BOUND('',#143,.T.);
#72=FACE_BOUND('',#144,.T.);
#73=FACE_BOUND('',#145,.T.);
#74=FACE_BOUND('',#146,.T.);
#75=FACE_BOUND('',#147,.T.);
#76=FACE_BOUND('',#148,.T.);
#77=FACE_BOUND('',#149,.T.);
#78=FACE_BOUND('',#150,.T.);
#79=FACE_BOUND('',#151,.T.);
#80=FACE_BOUND('',#152,.T.);
#81=FACE_BOUND('',#153,.T.);
#82=FACE_BOUND('',#154,.T.);
#83=FACE_BOUND('',#155,.T.);
#84=FACE_BOUND('',#156,.T.);
#85=FACE_BOUND('',#157,.T.);
#86=FACE_BOUND('',#158,.T.);
#87=FACE_BOUND('',#159,.T.);
#88=FACE_BOUND('',#160,.T.);
#89=ADVANCED_FACE('',(#118),#111,.T.);
#90=ADVANCED_FACE('',(#49,#50),#45,.T.);
#91=ADVANCED_FACE('',(#51,#52),#39,.T.);
#92=ADVANCED_FACE('',(#53,#54),#40,.T.);
#93=ADVANCED_FACE('',(#55,#56),#34,.T.);
#94=ADVANCED_FACE('',(#57,#58),#46,.F.);
#95=ADVANCED_FACE('',(#59,#60),#112,.T.);
#96=ADVANCED_FACE('',(#61,#62),#41,.F.);
#97=ADVANCED_FACE('',(#63,#64),#113,.T.);
#98=ADVANCED_FACE('',(#65,#66),#47,.T.);
#99=ADVANCED_FACE('',(#67,#68),#35,.T.);
#100=ADVANCED_FACE('',(#69,#70),#42,.T.);
#101=ADVANCED_FACE('',(#71,#72),#114,.T.);
#102=ADVANCED_FACE('',(#73,#74),#36,.T.);
#103=ADVANCED_FACE('',(#75,#76),#115,.T.);
#104=ADVANCED_FACE('',(#77,#78),#43,.T.);
#105=ADVANCED_FACE('',(#79,#80),#37,.T.);
#106=ADVANCED_FACE('',(#81,#82),#48,.T.);
#107=ADVANCED_FACE('',(#83,#84),#116,.T.);
#108=ADVANCED_FACE('',(#85,#86),#38,.T.);
#109=ADVANCED_FACE('',(#87,#88),#44,.T.);
#110=ADVANCED_FACE('',(#119),#117,.T.);
#111=PLANE('',#269);
#112=PLANE('',#281);
#113=PLANE('',#285);
#114=PLANE('',#293);
#115=PLANE('',#297);
#116=PLANE('',#305);
#117=PLANE('',#310);
#118=FACE_OUTER_BOUND('',#120,.T.);
#119=FACE_OUTER_BOUND('',#161,.T.);
#120=EDGE_LOOP('',(#162));
#121=EDGE_LOOP('',(#163));
#122=EDGE_LOOP('',(#164));
#123=EDGE_LOOP('',(#165));
#124=EDGE_LOOP('',(#166));
#125=EDGE_LOOP('',(#167));
#126=EDGE_LOOP('',(#168));
#127=EDGE_LOOP('',(#169));
#128=EDGE_LOOP('',(#170));
#129=EDGE_LOOP('',(#171));
#130=EDGE_LOOP('',(#172));
#131=EDGE_LOOP('',(#173));
#132=EDGE_LOOP('',(#174));
#133=EDGE_LOOP('',(#175));
#134=EDGE_LOOP('',(#176));
#135=EDGE_LOOP('',(#177));
#136=EDGE_LOOP('',(#178));
#137=EDGE_LOOP('',(#179));
#138=EDGE_LOOP('',(#180));
#139=EDGE_LOOP('',(#181));
#140=EDGE_LOOP('',(#182));
#141=EDGE_LOOP('',(#183));
#142=EDGE_LOOP('',(#184));
#143=EDGE_LOOP('',(#185));
#144=EDGE_LOOP('',(#186));
#145=EDGE_LOOP('',(#187));
#146=EDGE_LOOP('',(#188));
#147=EDGE_LOOP('',(#189));
#148=EDGE_LOOP('',(#190));
#149=EDGE_LOOP('',(#191));
#150=EDGE_LOOP('',(#192));
#151=EDGE_LOOP('',(#193));
#152=EDGE_LOOP('',(#194));
#153=EDGE_LOOP('',(#195));
#154=EDGE_LOOP('',(#196));
#155=EDGE_LOOP('',(#197));
#156=EDGE_LOOP('',(#198));
#157=EDGE_LOOP('',(#199));
#158=EDGE_LOOP('',(#200));
#159=EDGE_LOOP('',(#201));
#160=EDGE_LOOP('',(#202));
#161=EDGE_LOOP('',(#203));
#162=ORIENTED_EDGE('',*,*,#225,.T.);
#163=ORIENTED_EDGE('',*,*,#226,.T.);
#164=ORIENTED_EDGE('',*,*,#225,.F.);
#165=ORIENTED_EDGE('',*,*,#227,.T.);
#166=ORIENTED_EDGE('',*,*,#226,.F.);
#167=ORIENTED_EDGE('',*,*,#228,.T.);
#168=ORIENTED_EDGE('',*,*,#227,.F.);
#169=ORIENTED_EDGE('',*,*,#229,.T.);
#170=ORIENTED_EDGE('',*,*,#228,.F.);
#171=ORIENTED_EDGE('',*,*,#230,.T.);
#172=ORIENTED_EDGE('',*,*,#229,.F.);
#173=ORIENTED_EDGE('',*,*,#231,.T.);
#174=ORIENTED_EDGE('',*,*,#230,.F.);
#175=ORIENTED_EDGE('',*,*,#232,.T.);
#176=ORIENTED_EDGE('',*,*,#231,.F.);
#177=ORIENTED_EDGE('',*,*,#233,.T.);
#178=ORIENTED_EDGE('',*,*,#232,.F.);
#179=ORIENTED_EDGE('',*,*,#234,.T.);
#180=ORIENTED_EDGE('',*,*,#233,.F.);
#181=ORIENTED_EDGE('',*,*,#235,.T.);
#182=ORIENTED_EDGE('',*,*,#234,.F.);
#183=ORIENTED_EDGE('',*,*,#236,.T.);
#184=ORIENTED_EDGE('',*,*,#235,.F.);
#185=ORIENTED_EDGE('',*,*,#237,.T.);
#186=ORIENTED_EDGE('',*,*,#236,.F.);
#187=ORIENTED_EDGE('',*,*,#238,.T.);
#188=ORIENTED_EDGE('',*,*,#237,.F.);
#189=ORIENTED_EDGE('',*,*,#239,.T.);
#190=ORIENTED_EDGE('',*,*,#238,.F.);
#191=ORIENTED_EDGE('',*,*,#240,.T.);
#192=ORIENTED_EDGE('',*,*,#239,.F.);
#193=ORIENTED_EDGE('',*,*,#241,.T.);
#194=ORIENTED_EDGE('',*,*,#240,.F.);
#195=ORIENTED_EDGE('',*,*,#242,.T.);
#196=ORIENTED_EDGE('',*,*,#241,.F.);
#197=ORIENTED_EDGE('',*,*,#243,.T.);
#198=ORIENTED_EDGE('',*,*,#242,.F.);
#199=ORIENTED_EDGE('',*,*,#244,.T.);
#200=ORIENTED_EDGE('',*,*,#243,.F.);
#201=ORIENTED_EDGE('',*,*,#245,.T.);
#202=ORIENTED_EDGE('',*,*,#244,.F.);
#203=ORIENTED_EDGE('',*,*,#245,.F.);
#204=VERTEX_POINT('',#401);
#205=VERTEX_POINT('',#404);
#206=VERTEX_POINT('',#407);
#207=VERTEX_POINT('',#410);
#208=VERTEX_POINT('',#413);
#209=VERTEX_POINT('',#416);
#210=VERTEX_POINT('',#419);
#211=VERTEX_POINT('',#422);
#212=VERTEX_POINT('',#425);
#213=VERTEX_POINT('',#428);
#214=VERTEX_POINT('',#431);
#215=VERTEX_POINT('',#434);
#216=VERTEX_POINT('',#437);
#217=VERTEX_POINT('',#440);
#218=VERTEX_POINT('',#443);
#219=VERTEX_POINT('',#446);
#220=VERTEX_POINT('',#449);
#221=VERTEX_POINT('',#452);
#222=VERTEX_POINT('',#455);
#223=VERTEX_POINT('',#458);
#224=VERTEX_POINT('',#461);
#225=EDGE_CURVE('',#204,#204,#246,.T.);
#226=EDGE_CURVE('',#205,#205,#247,.T.);
#227=EDGE_CURVE('',#206,#206,#248,.T.);
#228=EDGE_CURVE('',#207,#207,#249,.T.);
#229=EDGE_CURVE('',#208,#208,#250,.T.);
#230=EDGE_CURVE('',#209,#209,#251,.T.);
#231=EDGE_CURVE('',#210,#210,#252,.T.);
#232=EDGE_CURVE('',#211,#211,#253,.T.);
#233=EDGE_CURVE('',#212,#212,#254,.T.);
#234=EDGE_CURVE('',#213,#213,#255,.T.);
#235=EDGE_CURVE('',#214,#214,#256,.T.);
#236=EDGE_CURVE('',#215,#215,#257,.T.);
#237=EDGE_CURVE('',#216,#216,#258,.T.);
#238=EDGE_CURVE('',#217,#217,#259,.T.);
#239=EDGE_CURVE('',#218,#218,#260,.T.);
#240=EDGE_CURVE('',#219,#219,#261,.T.);
#241=EDGE_CURVE('',#220,#220,#262,.T.);
#242=EDGE_CURVE('',#221,#221,#263,.T.);
#243=EDGE_CURVE('',#222,#222,#264,.T.);
#244=EDGE_CURVE('',#223,#223,#265,.T.);
#245=EDGE_CURVE('',#224,#224,#266,.T.);
#246=CIRCLE('',#268,19.2132836633976);
#247=CIRCLE('',#270,20.2028150505912);
#248=CIRCLE('',#272,34.925);
#249=CIRCLE('',#274,34.625);
#250=CIRCLE('',#276,34.625);
#251=CIRCLE('',#278,35.125);
#252=CIRCLE('',#280,35.8303847577293);
#253=CIRCLE('',#282,36.95);
#254=CIRCLE('',#284,48.9865);
#255=CIRCLE('',#286,49.9865);
#256=CIRCLE('',#288,49.9865);
#257=CIRCLE('',#290,43.0115980552164);
#258=CIRCLE('',#292,42.5);
#259=CIRCLE('',#294,42.5);
#260=CIRCLE('',#296,43.0115980552163);
#261=CIRCLE('',#298,49.9865);
#262=CIRCLE('',#300,49.9865);
#263=CIRCLE('',#302,48.9865);
#264=CIRCLE('',#304,32.5);
#265=CIRCLE('',#306,32.5);
#266=CIRCLE('',#308,24.5);
#267=AXIS2_PLACEMENT_3D('',#399,#311,#312);
#268=AXIS2_PLACEMENT_3D('',#400,#313,#314);
#269=AXIS2_PLACEMENT_3D('',#402,#315,#316);
#270=AXIS2_PLACEMENT_3D('',#403,#317,#318);
#271=AXIS2_PLACEMENT_3D('',#405,#319,#320);
#272=AXIS2_PLACEMENT_3D('',#406,#321,#322);
#273=AXIS2_PLACEMENT_3D('',#408,#323,#324);
#274=AXIS2_PLACEMENT_3D('',#409,#325,#326);
#275=AXIS2_PLACEMENT_3D('',#411,#327,#328);
#276=AXIS2_PLACEMENT_3D('',#412,#329,#330);
#277=AXIS2_PLACEMENT_3D('',#414,#331,#332);
#278=AXIS2_PLACEMENT_3D('',#415,#333,#334);
#279=AXIS2_PLACEMENT_3D('',#417,#335,#336);
#280=AXIS2_PLACEMENT_3D('',#418,#337,#338);
#281=AXIS2_PLACEMENT_3D('',#420,#339,#340);
#282=AXIS2_PLACEMENT_3D('',#421,#341,#342);
#283=AXIS2_PLACEMENT_3D('',#423,#343,#344);
#284=AXIS2_PLACEMENT_3D('',#424,#345,#346);
#285=AXIS2_PLACEMENT_3D('',#426,#347,#348);
#286=AXIS2_PLACEMENT_3D('',#427,#349,#350);
#287=AXIS2_PLACEMENT_3D('',#429,#351,#352);
#288=AXIS2_PLACEMENT_3D('',#430,#353,#354);
#289=AXIS2_PLACEMENT_3D('',#432,#355,#356);
#290=AXIS2_PLACEMENT_3D('',#433,#357,#358);
#291=AXIS2_PLACEMENT_3D('',#435,#359,#360);
#292=AXIS2_PLACEMENT_3D('',#436,#361,#362);
#293=AXIS2_PLACEMENT_3D('',#438,#363,#364);
#294=AXIS2_PLACEMENT_3D('',#439,#365,#366);
#295=AXIS2_PLACEMENT_3D('',#441,#367,#368);
#296=AXIS2_PLACEMENT_3D('',#442,#369,#370);
#297=AXIS2_PLACEMENT_3D('',#444,#371,#372);
#298=AXIS2_PLACEMENT_3D('',#445,#373,#374);
#299=AXIS2_PLACEMENT_3D('',#447,#375,#376);
#300=AXIS2_PLACEMENT_3D('',#448,#377,#378);
#301=AXIS2_PLACEMENT_3D('',#450,#379,#380);
#302=AXIS2_PLACEMENT_3D('',#451,#381,#382);
#303=AXIS2_PLACEMENT_3D('',#453,#383,#384);
#304=AXIS2_PLACEMENT_3D('',#454,#385,#386);
#305=AXIS2_PLACEMENT_3D('',#456,#387,#388);
#306=AXIS2_PLACEMENT_3D('',#457,#389,#390);
#307=AXIS2_PLACEMENT_3D('',#459,#391,#392);
#308=AXIS2_PLACEMENT_3D('',#460,#393,#394);
#309=AXIS2_PLACEMENT_3D('',#462,#395,#396);
#310=AXIS2_PLACEMENT_3D('',#463,#397,#398);
#311=DIRECTION('',(0.0,0.0,1.0));
#312=DIRECTION('',(1.0,0.0,0.0));
#313=DIRECTION('',(1.74494777937156E-17,-3.48989555874312E-17,1.0));
#314=DIRECTION('',(0.0,-1.0,0.0));
#315=DIRECTION('',(1.74494777937156E-17,-3.48989555874312E-17,1.0));
#316=DIRECTION('',(0.0,-1.0,-4.16333634234434E-17));
#317=DIRECTION('',(1.74494777937156E-17,-3.48989555874312E-17,1.0));
#318=DIRECTION('',(0.0,-1.0,0.0));
#319=DIRECTION('',(1.74494777937156E-17,-3.48989555874312E-17,1.0));
#320=DIRECTION('',(0.0,-1.0,0.0));
#321=DIRECTION('',(1.74494777937156E-17,-3.48989555874312E-17,1.0));
#322=DIRECTION('',(0.0,-1.0,-3.48989555874312E-17));
#323=DIRECTION('',(-1.74494777937156E-17,3.48989555874312E-17,-1.0));
#324=DIRECTION('',(4.63946950351246E-33,1.0,3.34309010035448E-16));
#325=DIRECTION('',(1.74494777937156E-17,-3.48989555874312E-17,1.0));
#326=DIRECTION('',(0.0,-1.0,-3.44439679345575E-17));
#327=DIRECTION('',(1.74494777937156E-17,-3.48989555874312E-17,1.0));
#328=DIRECTION('',(-6.52393205276474E-34,-1.0,-3.73875489564181E-17));
#329=DIRECTION('',(1.74494777937156E-17,-3.48989555874312E-17,1.0));
#330=DIRECTION('',(0.0,-1.0,-3.757523774679E-17));
#331=DIRECTION('',(1.74494777937156E-17,-3.48989555874312E-17,1.0));
#332=DIRECTION('',(0.0,-1.0,-3.48989555874312E-17));
#333=DIRECTION('',(1.74494777937156E-17,-3.48989555874312E-17,1.0));
#334=DIRECTION('',(0.0,-1.0,-3.70403589176542E-17));
#335=DIRECTION('',(1.74494777937156E-17,-3.48989555874312E-17,1.0));
#336=DIRECTION('',(0.0,-1.0,-3.65204942310907E-17));
#337=DIRECTION('',(1.74494777937156E-17,-3.48989555874312E-17,1.0));
#338=DIRECTION('',(0.0,-1.0,-3.63111536697061E-17));
#339=DIRECTION('',(1.74494777937156E-17,-3.48989555874312E-17,1.0));
#340=DIRECTION('',(0.0,-1.0,-3.49113099540332E-17));
#341=DIRECTION('',(1.74494777937156E-17,-3.48989555874312E-17,1.0));
#342=DIRECTION('',(0.0,-1.0,-3.52108959941165E-17));
#343=DIRECTION('',(1.74494777937156E-17,-3.48989555874312E-17,1.0));
#344=DIRECTION('',(-3.43424889303932E-34,-1.0,-3.54506155667107E-17));
#345=DIRECTION('',(1.74494777937156E-17,-3.48989555874312E-17,1.0));
#346=DIRECTION('',(0.0,-1.0,-3.54122763613813E-17));
#347=DIRECTION('',(1.74494777937156E-17,-3.48989555874312E-17,1.0));
#348=DIRECTION('',(0.0,-1.0,-3.49113099540332E-17));
#349=DIRECTION('',(1.74494777937156E-17,-3.48989555874312E-17,1.0));
#350=DIRECTION('',(0.0,-1.0,-3.47038395562163E-17));
#351=DIRECTION('',(1.74494777937156E-17,-3.48989555874312E-17,1.0));
#352=DIRECTION('',(0.0,-1.0,-3.47038395562163E-17));
#353=DIRECTION('',(1.74494777937156E-17,-3.48989555874312E-17,1.0));
#354=DIRECTION('',(0.0,-1.0,-6.94076791124326E-17));
#355=DIRECTION('',(1.74494777937156E-17,-3.48989555874312E-17,1.0));
#356=DIRECTION('',(0.0,-1.0,-3.48989555874312E-17));
#357=DIRECTION('',(1.74494777937156E-17,-3.48989555874312E-17,1.0));
#358=DIRECTION('',(0.0,-1.0,0.0));
#359=DIRECTION('',(1.74494777937156E-17,-3.48989555874312E-17,1.0));
#360=DIRECTION('',(3.49524378210771E-34,-1.0,-6.19960264651591E-17));
#361=DIRECTION('',(1.74494777937156E-17,-3.48989555874312E-17,1.0));
#362=DIRECTION('',(0.0,-1.0,0.0));
#363=DIRECTION('',(-1.74494777937156E-17,3.48989555874312E-17,-1.0));
#364=DIRECTION('',(0.0,1.0,3.46944695195361E-17));
#365=DIRECTION('',(1.74494777937156E-17,-3.48989555874312E-17,1.0));
#366=DIRECTION('',(0.0,-1.0,0.0));
#367=DIRECTION('',(1.74494777937156E-17,-3.48989555874312E-17,1.0));
#368=DIRECTION('',(0.0,-1.0,-3.48989555874312E-17));
#369=DIRECTION('',(1.74494777937156E-17,-3.48989555874312E-17,1.0));
#370=DIRECTION('',(0.0,-1.0,0.0));
#371=DIRECTION('',(1.74494777937156E-17,-3.48989555874312E-17,1.0));
#372=DIRECTION('',(0.0,-1.0,-3.46944695195361E-17));
#373=DIRECTION('',(1.74494777937156E-17,-3.48989555874312E-17,1.0));
#374=DIRECTION('',(0.0,-1.0,-6.94076791124326E-17));
#375=DIRECTION('',(-1.74494777937156E-17,3.48989555874312E-17,-1.0));
#376=DIRECTION('',(3.23899430165379E-34,1.0,3.30641693346285E-17));
#377=DIRECTION('',(1.74494777937156E-17,-3.48989555874312E-17,1.0));
#378=DIRECTION('',(0.0,-1.0,0.0));
#379=DIRECTION('',(1.74494777937156E-17,-3.48989555874312E-17,1.0));
#380=DIRECTION('',(0.0,-1.0,-3.48989555874312E-17));
#381=DIRECTION('',(1.74494777937156E-17,-3.48989555874312E-17,1.0));
#382=DIRECTION('',(0.0,-1.0,0.0));
#383=DIRECTION('',(1.74494777937156E-17,-3.48989555874312E-17,1.0));
#384=DIRECTION('',(0.0,-1.0,0.0));
#385=DIRECTION('',(1.74494777937156E-17,-3.48989555874312E-17,1.0));
#386=DIRECTION('',(0.0,-1.0,0.0));
#387=DIRECTION('',(-1.74494777937156E-17,3.48989555874312E-17,-1.0));
#388=DIRECTION('',(0.0,1.0,3.46944695195361E-17));
#389=DIRECTION('',(1.74494777937156E-17,-3.48989555874312E-17,1.0));
#390=DIRECTION('',(0.0,-1.0,0.0));
#391=DIRECTION('',(1.74494777937156E-17,-3.48989555874312E-17,1.0));
#392=DIRECTION('',(0.0,-1.0,-3.48989555874312E-17));
#393=DIRECTION('',(1.74494777937156E-17,-3.48989555874312E-17,1.0));
#394=DIRECTION('',(0.0,-1.0,0.0));
#395=DIRECTION('',(1.74494777937156E-17,-3.48989555874312E-17,1.0));
#396=DIRECTION('',(1.30571521653372E-33,-1.0,2.68819134291805E-17));
#397=DIRECTION('',(-1.74494777937156E-17,3.48989555874312E-17,-1.0));
#398=DIRECTION('',(0.0,1.0,4.16333634234434E-17));
#399=CARTESIAN_POINT('',(0.0,0.0,0.0));
#400=CARTESIAN_POINT('',(1.77635683940025E-15,-3.5527136788005E-15,101.8));
#401=CARTESIAN_POINT('',(1.77635683940025E-15,-19.2132836633976,101.8));
#402=CARTESIAN_POINT('',(4.2780734577533,11.7539102239453,101.8));
#403=CARTESIAN_POINT('',(1.76142563223748E-15,-3.52285126447495E-15,100.944317822041));
#404=CARTESIAN_POINT('',(1.76142563223748E-15,-20.2028150505912,100.944317822041));
#405=CARTESIAN_POINT('',(1.73472347597681E-15,-3.46944695195361E-15,100.8));
#406=CARTESIAN_POINT('',(4.79595472905653E-31,-9.59190945811307E-31,2.74848037617709E-14));
#407=CARTESIAN_POINT('',(4.79595472905653E-31,-34.925,2.62659577378799E-14));
#408=CARTESIAN_POINT('',(1.76142563223748E-15,-3.52285126447495E-15,100.944317822041));
#409=CARTESIAN_POINT('',(-7.47613107893543E-18,1.49522621578709E-17,-0.428444402022618));
#410=CARTESIAN_POINT('',(-7.47613107893543E-18,-34.625,-0.428444402022619));
#411=CARTESIAN_POINT('',(4.79595472905653E-31,-9.59190945811307E-31,2.74848037617709E-14));
#412=CARTESIAN_POINT('',(-2.26843211318302E-17,4.53686422636605E-17,-1.3));
#413=CARTESIAN_POINT('',(-2.26843211318302E-17,-34.625,-1.3));
#414=CARTESIAN_POINT('',(0.0,0.0,0.0));
#415=CARTESIAN_POINT('',(-3.14090600286881E-17,6.28181200573763E-17,-1.8));
#416=CARTESIAN_POINT('',(-3.14090600286881E-17,-35.125,-1.8));
#417=CARTESIAN_POINT('',(0.0,0.0,-1.3));
#418=CARTESIAN_POINT('',(-3.14090600286881E-17,6.28181200573763E-17,-1.8));
#419=CARTESIAN_POINT('',(-3.14090600286881E-17,-35.8303847577293,-1.8));
#420=CARTESIAN_POINT('',(12.0134575343141,33.006703305105,-1.8));
#421=CARTESIAN_POINT('',(-2.61742166905734E-17,5.23484333811468E-17,-1.5));
#422=CARTESIAN_POINT('',(-2.61742166905734E-17,-36.95,-1.5));
#423=CARTESIAN_POINT('',(-3.14090600286881E-17,6.28181200573763E-17,-1.8));
#424=CARTESIAN_POINT('',(-2.61742166905735E-17,5.23484333811469E-17,-1.5));
#425=CARTESIAN_POINT('',(-2.61742166905735E-17,-48.9865,-1.5));
#426=CARTESIAN_POINT('',(12.6376442958835,34.7216423380393,-1.5));
#427=CARTESIAN_POINT('',(-4.36236944842891E-17,8.72473889685782E-17,-2.5));
#428=CARTESIAN_POINT('',(-4.36236944842891E-17,-49.9865,-2.5));
#429=CARTESIAN_POINT('',(0.0,0.0,-2.5));
#430=CARTESIAN_POINT('',(-2.73839927556249E-16,5.47679855112498E-16,-15.6933021603014));
#431=CARTESIAN_POINT('',(-2.73839927556249E-16,-49.9865,-15.6933021603014));
#432=CARTESIAN_POINT('',(0.0,0.0,0.0));
#433=CARTESIAN_POINT('',(-3.43754712536198E-16,6.87509425072395E-16,-19.7));
#434=CARTESIAN_POINT('',(-3.43754712536198E-16,-43.0115980552164,-19.7));
#435=CARTESIAN_POINT('',(-2.73839927556249E-16,5.47679855112498E-16,-15.6933021603014));
#436=CARTESIAN_POINT('',(-3.43754712536198E-16,6.87509425072395E-16,-19.7));
#437=CARTESIAN_POINT('',(-3.43754712536198E-16,-42.5,-19.7));
#438=CARTESIAN_POINT('',(14.7108329315112,40.4176813006964,-19.7));
#439=CARTESIAN_POINT('',(-4.65901057092207E-16,9.31802114184415E-16,-26.7));
#440=CARTESIAN_POINT('',(-4.65901057092207E-16,-42.5,-26.7));
#441=CARTESIAN_POINT('',(0.0,0.0,0.0));
#442=CARTESIAN_POINT('',(-4.65901057092207E-16,9.31802114184415E-16,-26.7));
#443=CARTESIAN_POINT('',(-4.65901057092207E-16,-43.0115980552163,-26.7));
#444=CARTESIAN_POINT('',(14.5358560913409,39.9369363834011,-26.7));
#445=CARTESIAN_POINT('',(-5.35815842072156E-16,1.07163168414431E-15,-30.7066978396986));
#446=CARTESIAN_POINT('',(-5.35815842072156E-16,-49.9865,-30.7066978396986));
#447=CARTESIAN_POINT('',(-4.65901057092207E-16,9.31802114184415E-16,-26.7));
#448=CARTESIAN_POINT('',(-6.45630678367478E-16,1.29126135673496E-15,-37.0));
#449=CARTESIAN_POINT('',(-6.45630678367478E-16,-49.9865,-37.0));
#450=CARTESIAN_POINT('',(0.0,0.0,0.0));
#451=CARTESIAN_POINT('',(-6.63080156161194E-16,1.32616031232239E-15,-38.0));
#452=CARTESIAN_POINT('',(-6.63080156161194E-16,-48.9865,-38.0));
#453=CARTESIAN_POINT('',(0.0,0.0,-37.0));
#454=CARTESIAN_POINT('',(-6.63080156161194E-16,1.32616031232239E-15,-38.0));
#455=CARTESIAN_POINT('',(-6.63080156161194E-16,-32.5,-38.0));
#456=CARTESIAN_POINT('',(16.7543697510229,46.0322525681289,-38.0));
#457=CARTESIAN_POINT('',(-1.60535195702184E-15,3.21070391404367E-15,-92.0));
#458=CARTESIAN_POINT('',(-1.60535195702184E-15,-32.5,-92.0));
#459=CARTESIAN_POINT('',(0.0,0.0,0.0));
#460=CARTESIAN_POINT('',(-1.74494777937156E-15,3.48989555874312E-15,-100.0));
#461=CARTESIAN_POINT('',(-1.74494777937156E-15,-24.5,-100.0));
#462=CARTESIAN_POINT('',(-1.60535195702184E-15,3.21070391404367E-15,-92.0));
#463=CARTESIAN_POINT('',(8.37949351147888,23.0224692092548,-100.0));
#464=MECHANICAL_DESIGN_GEOMETRIC_PRESENTATION_REPRESENTATION('',(#24),#465);
#465=(GEOMETRIC_REPRESENTATION_CONTEXT(3)GLOBAL_UNCERTAINTY_ASSIGNED_CONTEXT((#466))
     GLOBAL_UNIT_ASSIGNED_CONTEXT((#472,#468,#467))REPRESENTATION_CONTEXT('392','TOP_LEVEL_ASSEMBLY_PART'));
#466=UNCERTAINTY_MEASURE_WITH_UNIT(LENGTH_MEASURE(2.0E-5),#472,'DISTANCE_ACCURACY_VALUE',
     'Maximum Tolerance applied to model');
#467=(NAMED_UNIT(*)SI_UNIT($,.STERADIAN.)SOLID_ANGLE_UNIT());
#468=(CONVERSION_BASED_UNIT('DEGREE',#470)NAMED_UNIT(*)PLANE_ANGLE_UNIT());
#469=DIMENSIONAL_EXPONENTS(0.0,0.0,0.0,0.0,0.0,0.0,0.0);
#470=PLANE_ANGLE_MEASURE_WITH_UNIT(PLANE_ANGLE_MEASURE(0.0174532925),#471);
#471=(NAMED_UNIT(*)PLANE_ANGLE_UNIT()SI_UNIT($,.RADIAN.));
#472=(LENGTH_UNIT()NAMED_UNIT(*)SI_UNIT(.MILLI.,.METRE.));
#473=CARTESIAN_POINT('',(0.0,0.0,0.0));
#474=DIRECTION('',(0.0,0.0,1.0));
#475=DIRECTION('',(1.0,0.0,0.0));
#476=AXIS2_PLACEMENT_3D('PCS',#473,#474,#475);
#477=CARTESIAN_POINT('',(0.0,0.0,0.0));
#478=DIRECTION('',(0.0,0.0,1.0));
#479=DIRECTION('',(1.0,0.0,0.0));
#480=AXIS2_PLACEMENT_3D('MCS',#477,#478,#479);
#481=CARTESIAN_POINT('',(0.0,0.0,-100.0));
#482=DIRECTION('',(0.0,0.0,1.0));
#483=DIRECTION('',(1.0,0.0,0.0));
#484=AXIS2_PLACEMENT_3D('CSW',#481,#482,#483);
#485=CONSTRUCTIVE_GEOMETRY_REPRESENTATION('supplemental geometry',(#476,#480,#484),
     #465);
#486=CONSTRUCTIVE_GEOMETRY_REPRESENTATION_RELATIONSHIP('supplemental geometry',$,
     #22,#485);
ENDSEC;
END-ISO-10303-21;
