ISO-10303-21;
HEADER;
FILE_DESCRIPTION(
/* description */ ('3-D model version:1'),
/* implementation_level */ '2;1');
FILE_NAME(
/* name */ '392.55523-4025090',
/* time_stamp */ '2016-12-02T13:59:07',
/* author */ ('InteractiveCad'),
/* organization */ ('AB Sandvik Coromant'),
/* preprocessor_version */ 'ST-DEVELOPER v11',
/* originating_system */ 'SIEMENS UGS NX 6.0',
/* authorization */ '');
FILE_SCHEMA(('AUTOMOTIVE_DESIGN'));
ENDSEC;
DATA;
#10=SHAPE_REPRESENTATION_RELATIONSHIP('None','relationship between 392.55523_4025090uu_stp-None and 392.55523_402509\X\0D0uu_stp-None',
     #22,#11);
#11=ADVANCED_BREP_SHAPE_REPRESENTATION('392.55523_4025090uu_stp-None',(#32),#445);
#12=SHAPE_DEFINITION_REPRESENTATION(#13,#22);
#13=PRODUCT_DEFINITION_SHAPE('','',#14);
#14=PRODUCT_DEFINITION(' ','',#16,#15);
#15=PRODUCT_DEFINITION_CONTEXT('part definition',#21,'design');
#16=PRODUCT_DEFINITION_FORMATION_WITH_SPECIFIED_SOURCE(' ',' ',#18,.NOT_KNOWN.);
#17=PRODUCT_RELATED_PRODUCT_CATEGORY('part','',(#18));
#18=PRODUCT('392.55523_4025090uu_stp','392.55523_4025090uu_stp',' ',(#19));
#19=PRODUCT_CONTEXT(' ',#21,'mechanical');
#20=APPLICATION_PROTOCOL_DEFINITION('international standard','automotive_design',
     2001,#21);
#21=APPLICATION_CONTEXT('core data for automotive mechanical design processes');
#22=SHAPE_REPRESENTATION('392.55523_4025090uu_stp-None',(#256),#445);
#23=PRESENTATION_LAYER_ASSIGNMENT('1','Layer 1',(#32));
#24=STYLED_ITEM('',(#25),#32);
#25=PRESENTATION_STYLE_ASSIGNMENT((#26));
#26=SURFACE_STYLE_USAGE(.BOTH.,#27);
#27=SURFACE_SIDE_STYLE('',(#28));
#28=SURFACE_STYLE_FILL_AREA(#29);
#29=FILL_AREA_STYLE('',(#30));
#30=FILL_AREA_STYLE_COLOUR('',#31);
#31=COLOUR_RGB('TLS_NOCUT',0.499992370489052,0.499992370489052,0.499992370489052);
#32=MANIFOLD_SOLID_BREP('NOCUT',#33);
#33=CLOSED_SHELL('',(#85,#86,#87,#88,#89,#90,#91,#92,#93,#94,#95,#96,#97,#98,#99,
     #100,#101,#102,#103,#104,#105));
#34=TOROIDAL_SURFACE('',#266,22.425,0.5);
#35=CYLINDRICAL_SURFACE('',#264,21.925);
#36=CYLINDRICAL_SURFACE('',#274,31.4885);
#37=CYLINDRICAL_SURFACE('',#280,26.5);
#38=CYLINDRICAL_SURFACE('',#286,31.4885);
#39=CYLINDRICAL_SURFACE('',#290,31.25);
#40=CYLINDRICAL_SURFACE('',#294,32.5);
#41=CONICAL_SURFACE('',#260,12.6874125357568,8.29722000000015);
#42=CONICAL_SURFACE('',#262,22.225,35.0000000000013);
#43=CONICAL_SURFACE('',#270,23.8803847577293,75.0000000000007);
#44=CONICAL_SURFACE('',#276,31.4885,60.125);
#45=CONICAL_SURFACE('',#284,27.117867131588,60.1250000000002);
#46=CONICAL_SURFACE('',#296,32.5,45.0000000000001);
#47=FACE_BOUND('',#117,.T.);
#48=FACE_BOUND('',#118,.T.);
#49=FACE_BOUND('',#119,.T.);
#50=FACE_BOUND('',#120,.T.);
#51=FACE_BOUND('',#121,.T.);
#52=FACE_BOUND('',#122,.T.);
#53=FACE_BOUND('',#123,.T.);
#54=FACE_BOUND('',#124,.T.);
#55=FACE_BOUND('',#125,.T.);
#56=FACE_BOUND('',#126,.T.);
#57=FACE_BOUND('',#127,.T.);
#58=FACE_BOUND('',#128,.T.);
#59=FACE_BOUND('',#129,.T.);
#60=FACE_BOUND('',#130,.T.);
#61=FACE_BOUND('',#131,.T.);
#62=FACE_BOUND('',#132,.T.);
#63=FACE_BOUND('',#133,.T.);
#64=FACE_BOUND('',#134,.T.);
#65=FACE_BOUND('',#135,.T.);
#66=FACE_BOUND('',#136,.T.);
#67=FACE_BOUND('',#137,.T.);
#68=FACE_BOUND('',#138,.T.);
#69=FACE_BOUND('',#139,.T.);
#70=FACE_BOUND('',#140,.T.);
#71=FACE_BOUND('',#141,.T.);
#72=FACE_BOUND('',#142,.T.);
#73=FACE_BOUND('',#143,.T.);
#74=FACE_BOUND('',#144,.T.);
#75=FACE_BOUND('',#145,.T.);
#76=FACE_BOUND('',#146,.T.);
#77=FACE_BOUND('',#147,.T.);
#78=FACE_BOUND('',#148,.T.);
#79=FACE_BOUND('',#149,.T.);
#80=FACE_BOUND('',#150,.T.);
#81=FACE_BOUND('',#151,.T.);
#82=FACE_BOUND('',#152,.T.);
#83=FACE_BOUND('',#153,.T.);
#84=FACE_BOUND('',#154,.T.);
#85=ADVANCED_FACE('',(#114),#106,.T.);
#86=ADVANCED_FACE('',(#47,#48),#41,.T.);
#87=ADVANCED_FACE('',(#49,#50),#42,.T.);
#88=ADVANCED_FACE('',(#51,#52),#35,.T.);
#89=ADVANCED_FACE('',(#53,#54),#34,.F.);
#90=ADVANCED_FACE('',(#55,#56),#107,.T.);
#91=ADVANCED_FACE('',(#57,#58),#43,.F.);
#92=ADVANCED_FACE('',(#59,#60),#108,.T.);
#93=ADVANCED_FACE('',(#61,#62),#36,.T.);
#94=ADVANCED_FACE('',(#63,#64),#44,.T.);
#95=ADVANCED_FACE('',(#65,#66),#109,.T.);
#96=ADVANCED_FACE('',(#67,#68),#37,.T.);
#97=ADVANCED_FACE('',(#69,#70),#110,.T.);
#98=ADVANCED_FACE('',(#71,#72),#45,.T.);
#99=ADVANCED_FACE('',(#73,#74),#38,.T.);
#100=ADVANCED_FACE('',(#75,#76),#111,.T.);
#101=ADVANCED_FACE('',(#77,#78),#39,.T.);
#102=ADVANCED_FACE('',(#79,#80),#112,.T.);
#103=ADVANCED_FACE('',(#81,#82),#40,.T.);
#104=ADVANCED_FACE('',(#83,#84),#46,.T.);
#105=ADVANCED_FACE('',(#115),#113,.T.);
#106=PLANE('',#258);
#107=PLANE('',#268);
#108=PLANE('',#272);
#109=PLANE('',#278);
#110=PLANE('',#282);
#111=PLANE('',#288);
#112=PLANE('',#292);
#113=PLANE('',#297);
#114=FACE_OUTER_BOUND('',#116,.T.);
#115=FACE_OUTER_BOUND('',#155,.T.);
#116=EDGE_LOOP('',(#156));
#117=EDGE_LOOP('',(#157));
#118=EDGE_LOOP('',(#158));
#119=EDGE_LOOP('',(#159));
#120=EDGE_LOOP('',(#160));
#121=EDGE_LOOP('',(#161));
#122=EDGE_LOOP('',(#162));
#123=EDGE_LOOP('',(#163));
#124=EDGE_LOOP('',(#164));
#125=EDGE_LOOP('',(#165));
#126=EDGE_LOOP('',(#166));
#127=EDGE_LOOP('',(#167));
#128=EDGE_LOOP('',(#168));
#129=EDGE_LOOP('',(#169));
#130=EDGE_LOOP('',(#170));
#131=EDGE_LOOP('',(#171));
#132=EDGE_LOOP('',(#172));
#133=EDGE_LOOP('',(#173));
#134=EDGE_LOOP('',(#174));
#135=EDGE_LOOP('',(#175));
#136=EDGE_LOOP('',(#176));
#137=EDGE_LOOP('',(#177));
#138=EDGE_LOOP('',(#178));
#139=EDGE_LOOP('',(#179));
#140=EDGE_LOOP('',(#180));
#141=EDGE_LOOP('',(#181));
#142=EDGE_LOOP('',(#182));
#143=EDGE_LOOP('',(#183));
#144=EDGE_LOOP('',(#184));
#145=EDGE_LOOP('',(#185));
#146=EDGE_LOOP('',(#186));
#147=EDGE_LOOP('',(#187));
#148=EDGE_LOOP('',(#188));
#149=EDGE_LOOP('',(#189));
#150=EDGE_LOOP('',(#190));
#151=EDGE_LOOP('',(#191));
#152=EDGE_LOOP('',(#192));
#153=EDGE_LOOP('',(#193));
#154=EDGE_LOOP('',(#194));
#155=EDGE_LOOP('',(#195));
#156=ORIENTED_EDGE('',*,*,#216,.T.);
#157=ORIENTED_EDGE('',*,*,#217,.T.);
#158=ORIENTED_EDGE('',*,*,#216,.F.);
#159=ORIENTED_EDGE('',*,*,#218,.T.);
#160=ORIENTED_EDGE('',*,*,#217,.F.);
#161=ORIENTED_EDGE('',*,*,#219,.T.);
#162=ORIENTED_EDGE('',*,*,#218,.F.);
#163=ORIENTED_EDGE('',*,*,#220,.T.);
#164=ORIENTED_EDGE('',*,*,#219,.F.);
#165=ORIENTED_EDGE('',*,*,#221,.T.);
#166=ORIENTED_EDGE('',*,*,#220,.F.);
#167=ORIENTED_EDGE('',*,*,#222,.T.);
#168=ORIENTED_EDGE('',*,*,#221,.F.);
#169=ORIENTED_EDGE('',*,*,#223,.T.);
#170=ORIENTED_EDGE('',*,*,#222,.F.);
#171=ORIENTED_EDGE('',*,*,#224,.T.);
#172=ORIENTED_EDGE('',*,*,#223,.F.);
#173=ORIENTED_EDGE('',*,*,#225,.T.);
#174=ORIENTED_EDGE('',*,*,#224,.F.);
#175=ORIENTED_EDGE('',*,*,#226,.T.);
#176=ORIENTED_EDGE('',*,*,#225,.F.);
#177=ORIENTED_EDGE('',*,*,#227,.T.);
#178=ORIENTED_EDGE('',*,*,#226,.F.);
#179=ORIENTED_EDGE('',*,*,#228,.T.);
#180=ORIENTED_EDGE('',*,*,#227,.F.);
#181=ORIENTED_EDGE('',*,*,#229,.T.);
#182=ORIENTED_EDGE('',*,*,#228,.F.);
#183=ORIENTED_EDGE('',*,*,#230,.T.);
#184=ORIENTED_EDGE('',*,*,#229,.F.);
#185=ORIENTED_EDGE('',*,*,#231,.T.);
#186=ORIENTED_EDGE('',*,*,#230,.F.);
#187=ORIENTED_EDGE('',*,*,#232,.T.);
#188=ORIENTED_EDGE('',*,*,#231,.F.);
#189=ORIENTED_EDGE('',*,*,#233,.T.);
#190=ORIENTED_EDGE('',*,*,#232,.F.);
#191=ORIENTED_EDGE('',*,*,#234,.T.);
#192=ORIENTED_EDGE('',*,*,#233,.F.);
#193=ORIENTED_EDGE('',*,*,#235,.T.);
#194=ORIENTED_EDGE('',*,*,#234,.F.);
#195=ORIENTED_EDGE('',*,*,#235,.F.);
#196=VERTEX_POINT('',#384);
#197=VERTEX_POINT('',#387);
#198=VERTEX_POINT('',#390);
#199=VERTEX_POINT('',#393);
#200=VERTEX_POINT('',#396);
#201=VERTEX_POINT('',#399);
#202=VERTEX_POINT('',#402);
#203=VERTEX_POINT('',#405);
#204=VERTEX_POINT('',#408);
#205=VERTEX_POINT('',#411);
#206=VERTEX_POINT('',#414);
#207=VERTEX_POINT('',#417);
#208=VERTEX_POINT('',#420);
#209=VERTEX_POINT('',#423);
#210=VERTEX_POINT('',#426);
#211=VERTEX_POINT('',#429);
#212=VERTEX_POINT('',#432);
#213=VERTEX_POINT('',#435);
#214=VERTEX_POINT('',#438);
#215=VERTEX_POINT('',#441);
#216=EDGE_CURVE('',#196,#196,#236,.T.);
#217=EDGE_CURVE('',#197,#197,#237,.T.);
#218=EDGE_CURVE('',#198,#198,#238,.T.);
#219=EDGE_CURVE('',#199,#199,#239,.T.);
#220=EDGE_CURVE('',#200,#200,#240,.T.);
#221=EDGE_CURVE('',#201,#201,#241,.T.);
#222=EDGE_CURVE('',#202,#202,#242,.T.);
#223=EDGE_CURVE('',#203,#203,#243,.T.);
#224=EDGE_CURVE('',#204,#204,#244,.T.);
#225=EDGE_CURVE('',#205,#205,#245,.T.);
#226=EDGE_CURVE('',#206,#206,#246,.T.);
#227=EDGE_CURVE('',#207,#207,#247,.T.);
#228=EDGE_CURVE('',#208,#208,#248,.T.);
#229=EDGE_CURVE('',#209,#209,#249,.T.);
#230=EDGE_CURVE('',#210,#210,#250,.T.);
#231=EDGE_CURVE('',#211,#211,#251,.T.);
#232=EDGE_CURVE('',#212,#212,#252,.T.);
#233=EDGE_CURVE('',#213,#213,#253,.T.);
#234=EDGE_CURVE('',#214,#214,#254,.T.);
#235=EDGE_CURVE('',#215,#215,#255,.T.);
#236=CIRCLE('',#257,12.6874125357568);
#237=CIRCLE('',#259,22.225);
#238=CIRCLE('',#261,21.925);
#239=CIRCLE('',#263,21.925);
#240=CIRCLE('',#265,22.425);
#241=CIRCLE('',#267,23.8803847577293);
#242=CIRCLE('',#269,25.0);
#243=CIRCLE('',#271,31.4885);
#244=CIRCLE('',#273,31.4885);
#245=CIRCLE('',#275,27.117867131588);
#246=CIRCLE('',#277,26.5);
#247=CIRCLE('',#279,26.5);
#248=CIRCLE('',#281,27.117867131588);
#249=CIRCLE('',#283,31.4885);
#250=CIRCLE('',#285,31.4885);
#251=CIRCLE('',#287,31.25);
#252=CIRCLE('',#289,31.25);
#253=CIRCLE('',#291,32.5);
#254=CIRCLE('',#293,32.5);
#255=CIRCLE('',#295,24.5);
#256=AXIS2_PLACEMENT_3D('',#382,#298,#299);
#257=AXIS2_PLACEMENT_3D('',#383,#300,#301);
#258=AXIS2_PLACEMENT_3D('',#385,#302,#303);
#259=AXIS2_PLACEMENT_3D('',#386,#304,#305);
#260=AXIS2_PLACEMENT_3D('',#388,#306,#307);
#261=AXIS2_PLACEMENT_3D('',#389,#308,#309);
#262=AXIS2_PLACEMENT_3D('',#391,#310,#311);
#263=AXIS2_PLACEMENT_3D('',#392,#312,#313);
#264=AXIS2_PLACEMENT_3D('',#394,#314,#315);
#265=AXIS2_PLACEMENT_3D('',#395,#316,#317);
#266=AXIS2_PLACEMENT_3D('',#397,#318,#319);
#267=AXIS2_PLACEMENT_3D('',#398,#320,#321);
#268=AXIS2_PLACEMENT_3D('',#400,#322,#323);
#269=AXIS2_PLACEMENT_3D('',#401,#324,#325);
#270=AXIS2_PLACEMENT_3D('',#403,#326,#327);
#271=AXIS2_PLACEMENT_3D('',#404,#328,#329);
#272=AXIS2_PLACEMENT_3D('',#406,#330,#331);
#273=AXIS2_PLACEMENT_3D('',#407,#332,#333);
#274=AXIS2_PLACEMENT_3D('',#409,#334,#335);
#275=AXIS2_PLACEMENT_3D('',#410,#336,#337);
#276=AXIS2_PLACEMENT_3D('',#412,#338,#339);
#277=AXIS2_PLACEMENT_3D('',#413,#340,#341);
#278=AXIS2_PLACEMENT_3D('',#415,#342,#343);
#279=AXIS2_PLACEMENT_3D('',#416,#344,#345);
#280=AXIS2_PLACEMENT_3D('',#418,#346,#347);
#281=AXIS2_PLACEMENT_3D('',#419,#348,#349);
#282=AXIS2_PLACEMENT_3D('',#421,#350,#351);
#283=AXIS2_PLACEMENT_3D('',#422,#352,#353);
#284=AXIS2_PLACEMENT_3D('',#424,#354,#355);
#285=AXIS2_PLACEMENT_3D('',#425,#356,#357);
#286=AXIS2_PLACEMENT_3D('',#427,#358,#359);
#287=AXIS2_PLACEMENT_3D('',#428,#360,#361);
#288=AXIS2_PLACEMENT_3D('',#430,#362,#363);
#289=AXIS2_PLACEMENT_3D('',#431,#364,#365);
#290=AXIS2_PLACEMENT_3D('',#433,#366,#367);
#291=AXIS2_PLACEMENT_3D('',#434,#368,#369);
#292=AXIS2_PLACEMENT_3D('',#436,#370,#371);
#293=AXIS2_PLACEMENT_3D('',#437,#372,#373);
#294=AXIS2_PLACEMENT_3D('',#439,#374,#375);
#295=AXIS2_PLACEMENT_3D('',#440,#376,#377);
#296=AXIS2_PLACEMENT_3D('',#442,#378,#379);
#297=AXIS2_PLACEMENT_3D('',#443,#380,#381);
#298=DIRECTION('',(0.0,0.0,1.0));
#299=DIRECTION('',(1.0,0.0,0.0));
#300=DIRECTION('',(0.0,0.0,1.0));
#301=DIRECTION('',(1.0,0.0,0.0));
#302=DIRECTION('',(0.0,0.0,1.0));
#303=DIRECTION('',(1.0,0.0,0.0));
#304=DIRECTION('',(0.0,0.0,1.0));
#305=DIRECTION('',(1.0,0.0,0.0));
#306=DIRECTION('',(0.0,0.0,-1.0));
#307=DIRECTION('',(-1.0,0.0,-8.7544823559725E-17));
#308=DIRECTION('',(0.0,0.0,1.0));
#309=DIRECTION('',(1.0,0.0,0.0));
#310=DIRECTION('',(0.0,0.0,1.0));
#311=DIRECTION('',(1.0,0.0,0.0));
#312=DIRECTION('',(0.0,0.0,1.0));
#313=DIRECTION('',(1.0,0.0,0.0));
#314=DIRECTION('',(0.0,0.0,1.0));
#315=DIRECTION('',(1.0,0.0,0.0));
#316=DIRECTION('',(0.0,0.0,1.0));
#317=DIRECTION('',(1.0,0.0,0.0));
#318=DIRECTION('',(0.0,0.0,1.0));
#319=DIRECTION('',(1.0,0.0,0.0));
#320=DIRECTION('',(0.0,0.0,1.0));
#321=DIRECTION('',(1.0,0.0,0.0));
#322=DIRECTION('',(0.0,0.0,1.0));
#323=DIRECTION('',(1.0,0.0,0.0));
#324=DIRECTION('',(0.0,0.0,1.0));
#325=DIRECTION('',(1.0,0.0,0.0));
#326=DIRECTION('',(0.0,0.0,1.0));
#327=DIRECTION('',(1.0,0.0,6.00421148123535E-18));
#328=DIRECTION('',(0.0,0.0,1.0));
#329=DIRECTION('',(1.0,0.0,0.0));
#330=DIRECTION('',(0.0,0.0,1.0));
#331=DIRECTION('',(1.0,0.0,0.0));
#332=DIRECTION('',(0.0,0.0,1.0));
#333=DIRECTION('',(1.0,0.0,0.0));
#334=DIRECTION('',(0.0,0.0,1.0));
#335=DIRECTION('',(1.0,0.0,0.0));
#336=DIRECTION('',(0.0,0.0,1.0));
#337=DIRECTION('',(1.0,0.0,0.0));
#338=DIRECTION('',(0.0,0.0,1.0));
#339=DIRECTION('',(1.0,0.0,1.85971694204169E-17));
#340=DIRECTION('',(0.0,0.0,1.0));
#341=DIRECTION('',(1.0,0.0,0.0));
#342=DIRECTION('',(0.0,0.0,-1.0));
#343=DIRECTION('',(-1.0,0.0,0.0));
#344=DIRECTION('',(0.0,0.0,1.0));
#345=DIRECTION('',(1.0,0.0,0.0));
#346=DIRECTION('',(0.0,0.0,1.0));
#347=DIRECTION('',(1.0,0.0,0.0));
#348=DIRECTION('',(0.0,0.0,1.0));
#349=DIRECTION('',(1.0,0.0,0.0));
#350=DIRECTION('',(0.0,0.0,1.0));
#351=DIRECTION('',(1.0,0.0,0.0));
#352=DIRECTION('',(0.0,0.0,1.0));
#353=DIRECTION('',(1.0,0.0,0.0));
#354=DIRECTION('',(0.0,0.0,-1.0));
#355=DIRECTION('',(-1.0,0.0,6.08355255410926E-17));
#356=DIRECTION('',(0.0,0.0,1.0));
#357=DIRECTION('',(1.0,0.0,0.0));
#358=DIRECTION('',(0.0,0.0,1.0));
#359=DIRECTION('',(1.0,0.0,0.0));
#360=DIRECTION('',(0.0,0.0,1.0));
#361=DIRECTION('',(1.0,0.0,0.0));
#362=DIRECTION('',(0.0,0.0,-1.0));
#363=DIRECTION('',(-1.0,0.0,0.0));
#364=DIRECTION('',(0.0,0.0,1.0));
#365=DIRECTION('',(1.0,0.0,0.0));
#366=DIRECTION('',(0.0,0.0,1.0));
#367=DIRECTION('',(1.0,0.0,0.0));
#368=DIRECTION('',(0.0,0.0,1.0));
#369=DIRECTION('',(1.0,0.0,0.0));
#370=DIRECTION('',(0.0,0.0,1.0));
#371=DIRECTION('',(1.0,0.0,0.0));
#372=DIRECTION('',(0.0,0.0,1.0));
#373=DIRECTION('',(1.0,0.0,0.0));
#374=DIRECTION('',(0.0,0.0,1.0));
#375=DIRECTION('',(1.0,0.0,0.0));
#376=DIRECTION('',(0.0,0.0,1.0));
#377=DIRECTION('',(1.0,0.0,0.0));
#378=DIRECTION('',(0.0,0.0,1.0));
#379=DIRECTION('',(1.0,0.0,4.03228701437708E-17));
#380=DIRECTION('',(0.0,0.0,-1.0));
#381=DIRECTION('',(-1.0,0.0,0.0));
#382=CARTESIAN_POINT('',(0.0,0.0,0.0));
#383=CARTESIAN_POINT('',(0.0,0.0,65.4));
#384=CARTESIAN_POINT('',(12.6874125357568,0.0,65.4));
#385=CARTESIAN_POINT('',(5.46803349870097,6.51654856650237,65.4));
#386=CARTESIAN_POINT('',(0.0,0.0,0.0));
#387=CARTESIAN_POINT('',(22.225,0.0,0.0));
#388=CARTESIAN_POINT('',(0.0,0.0,65.4));
#389=CARTESIAN_POINT('',(0.0,0.0,-0.428444402022631));
#390=CARTESIAN_POINT('',(21.925,0.0,-0.428444402022631));
#391=CARTESIAN_POINT('',(0.0,0.0,0.0));
#392=CARTESIAN_POINT('',(0.0,0.0,-0.799999999999988));
#393=CARTESIAN_POINT('',(21.925,0.0,-0.799999999999988));
#394=CARTESIAN_POINT('',(0.0,0.0,0.0));
#395=CARTESIAN_POINT('',(0.0,0.0,-1.29999999999999));
#396=CARTESIAN_POINT('',(22.425,0.0,-1.29999999999999));
#397=CARTESIAN_POINT('',(0.0,0.0,-0.799999999999988));
#398=CARTESIAN_POINT('',(0.0,0.0,-1.29999999999999));
#399=CARTESIAN_POINT('',(23.8803847577293,0.0,-1.29999999999999));
#400=CARTESIAN_POINT('',(14.4145121472206,17.1785466369431,-1.29999999999999));
#401=CARTESIAN_POINT('',(0.0,0.0,-0.999999999999994));
#402=CARTESIAN_POINT('',(25.0,0.0,-0.999999999999994));
#403=CARTESIAN_POINT('',(0.0,0.0,-1.29999999999999));
#404=CARTESIAN_POINT('',(0.0,0.0,-1.0));
#405=CARTESIAN_POINT('',(31.4885,0.0,-1.0));
#406=CARTESIAN_POINT('',(16.0696902421635,19.1511110779745,-0.999999999999997));
#407=CARTESIAN_POINT('',(0.0,0.0,-11.589311618914));
#408=CARTESIAN_POINT('',(31.4885,0.0,-11.589311618914));
#409=CARTESIAN_POINT('',(0.0,0.0,0.0));
#410=CARTESIAN_POINT('',(0.0,0.0,-14.1));
#411=CARTESIAN_POINT('',(27.117867131588,0.0,-14.1));
#412=CARTESIAN_POINT('',(0.0,0.0,-11.589311618914));
#413=CARTESIAN_POINT('',(0.0,0.0,-14.1));
#414=CARTESIAN_POINT('',(26.5,0.0,-14.1));
#415=CARTESIAN_POINT('',(17.4310289933106,20.7734914253918,-14.1));
#416=CARTESIAN_POINT('',(0.0,0.0,-19.1));
#417=CARTESIAN_POINT('',(26.5,0.0,-19.1));
#418=CARTESIAN_POINT('',(0.0,0.0,0.0));
#419=CARTESIAN_POINT('',(0.0,0.0,-19.1));
#420=CARTESIAN_POINT('',(27.117867131588,0.0,-19.1));
#421=CARTESIAN_POINT('',(17.0338716566933,20.3001777426529,-19.1));
#422=CARTESIAN_POINT('',(0.0,0.0,-21.610688381086));
#423=CARTESIAN_POINT('',(31.4885,0.0,-21.610688381086));
#424=CARTESIAN_POINT('',(0.0,0.0,-19.1));
#425=CARTESIAN_POINT('',(0.0,0.0,-27.0));
#426=CARTESIAN_POINT('',(31.4885,0.0,-27.0));
#427=CARTESIAN_POINT('',(0.0,0.0,0.0));
#428=CARTESIAN_POINT('',(0.0,0.0,-27.0));
#429=CARTESIAN_POINT('',(31.25,0.0,-27.0));
#430=CARTESIAN_POINT('',(20.2404176476146,24.1215904471519,-27.0));
#431=CARTESIAN_POINT('',(0.0,0.0,-30.0));
#432=CARTESIAN_POINT('',(31.25,0.0,-30.0));
#433=CARTESIAN_POINT('',(0.0,0.0,0.0));
#434=CARTESIAN_POINT('',(0.0,0.0,-30.0));
#435=CARTESIAN_POINT('',(32.5,0.0,-30.0));
#436=CARTESIAN_POINT('',(20.0871128027044,23.9388888474681,-30.0));
#437=CARTESIAN_POINT('',(0.0,0.0,-82.0));
#438=CARTESIAN_POINT('',(32.5,0.0,-82.0));
#439=CARTESIAN_POINT('',(0.0,0.0,0.0));
#440=CARTESIAN_POINT('',(0.0,0.0,-90.0));
#441=CARTESIAN_POINT('',(24.5,0.0,-90.0));
#442=CARTESIAN_POINT('',(0.0,0.0,-82.0));
#443=CARTESIAN_POINT('',(15.7482964373202,18.768088856415,-90.0));
#444=MECHANICAL_DESIGN_GEOMETRIC_PRESENTATION_REPRESENTATION('',(#24),#445);
#445=(GEOMETRIC_REPRESENTATION_CONTEXT(3)GLOBAL_UNCERTAINTY_ASSIGNED_CONTEXT((#446))
     GLOBAL_UNIT_ASSIGNED_CONTEXT((#452,#448,#447))REPRESENTATION_CONTEXT('392','TOP_LEVEL_ASSEMBLY_PART'));
#446=UNCERTAINTY_MEASURE_WITH_UNIT(LENGTH_MEASURE(2.0E-5),#452,'DISTANCE_ACCURACY_VALUE',
     'Maximum Tolerance applied to model');
#447=(NAMED_UNIT(*)SI_UNIT($,.STERADIAN.)SOLID_ANGLE_UNIT());
#448=(CONVERSION_BASED_UNIT('DEGREE',#450)NAMED_UNIT(*)PLANE_ANGLE_UNIT());
#449=DIMENSIONAL_EXPONENTS(0.0,0.0,0.0,0.0,0.0,0.0,0.0);
#450=PLANE_ANGLE_MEASURE_WITH_UNIT(PLANE_ANGLE_MEASURE(0.0174532925),#451);
#451=(NAMED_UNIT(*)PLANE_ANGLE_UNIT()SI_UNIT($,.RADIAN.));
#452=(LENGTH_UNIT()NAMED_UNIT(*)SI_UNIT(.MILLI.,.METRE.));
#453=CARTESIAN_POINT('',(0.0,0.0,0.0));
#454=DIRECTION('',(0.0,0.0,1.0));
#455=DIRECTION('',(1.0,0.0,0.0));
#456=AXIS2_PLACEMENT_3D('PCS',#453,#454,#455);
#457=CARTESIAN_POINT('',(0.0,0.0,0.0));
#458=DIRECTION('',(0.0,0.0,1.0));
#459=DIRECTION('',(1.0,0.0,0.0));
#460=AXIS2_PLACEMENT_3D('MCS',#457,#458,#459);
#461=CARTESIAN_POINT('',(0.0,0.0,-90.0));
#462=DIRECTION('',(0.0,0.0,1.0));
#463=DIRECTION('',(1.0,0.0,0.0));
#464=AXIS2_PLACEMENT_3D('CSW',#461,#462,#463);
#465=CONSTRUCTIVE_GEOMETRY_REPRESENTATION('supplemental geometry',(#456,#460,#464),
     #445);
#466=CONSTRUCTIVE_GEOMETRY_REPRESENTATION_RELATIONSHIP('supplemental geometry',$,
     #22,#465);
ENDSEC;
END-ISO-10303-21;
