ISO-10303-21;
HEADER;
FILE_DESCRIPTION(
/* description */ ('3-D model version:1'),
/* implementation_level */ '2;1');
FILE_NAME(
/* name */ '392.55523-4020065',
/* time_stamp */ '2016-12-02T13:59:08',
/* author */ ('InteractiveCad'),
/* organization */ ('AB Sandvik Coromant'),
/* preprocessor_version */ 'ST-DEVELOPER v11',
/* originating_system */ 'SIEMENS UGS NX 6.0',
/* authorization */ '');
FILE_SCHEMA(('AUTOMOTIVE_DESIGN'));
ENDSEC;
DATA;
#10=SHAPE_REPRESENTATION_RELATIONSHIP('None','relationship between 392.55523_4020065uu_stp-None and 392.55523_402006\X\0D5uu_stp-None',
     #22,#11);
#11=ADVANCED_BREP_SHAPE_REPRESENTATION('392.55523_4020065uu_stp-None',(#32),#405);
#12=SHAPE_DEFINITION_REPRESENTATION(#13,#22);
#13=PRODUCT_DEFINITION_SHAPE('','',#14);
#14=PRODUCT_DEFINITION(' ','',#16,#15);
#15=PRODUCT_DEFINITION_CONTEXT('part definition',#21,'design');
#16=PRODUCT_DEFINITION_FORMATION_WITH_SPECIFIED_SOURCE(' ',' ',#18,.NOT_KNOWN.);
#17=PRODUCT_RELATED_PRODUCT_CATEGORY('part','',(#18));
#18=PRODUCT('392.55523_4020065uu_stp','392.55523_4020065uu_stp',' ',(#19));
#19=PRODUCT_CONTEXT(' ',#21,'mechanical');
#20=APPLICATION_PROTOCOL_DEFINITION('international standard','automotive_design',
     2001,#21);
#21=APPLICATION_CONTEXT('core data for automotive mechanical design processes');
#22=SHAPE_REPRESENTATION('392.55523_4020065uu_stp-None',(#234),#405);
#23=PRESENTATION_LAYER_ASSIGNMENT('1','Layer 1',(#32));
#24=STYLED_ITEM('',(#25),#32);
#25=PRESENTATION_STYLE_ASSIGNMENT((#26));
#26=SURFACE_STYLE_USAGE(.BOTH.,#27);
#27=SURFACE_SIDE_STYLE('',(#28));
#28=SURFACE_STYLE_FILL_AREA(#29);
#29=FILL_AREA_STYLE('',(#30));
#30=FILL_AREA_STYLE_COLOUR('',#31);
#31=COLOUR_RGB('TLS_NOCUT',0.499992370489052,0.499992370489052,0.499992370489052);
#32=MANIFOLD_SOLID_BREP('NOCUT',#33);
#33=CLOSED_SHELL('',(#80,#81,#82,#83,#84,#85,#86,#87,#88,#89,#90,#91,#92,#93,#94,
     #95,#96,#97,#98));
#34=TOROIDAL_SURFACE('',#264,22.425,0.5);
#35=CYLINDRICAL_SURFACE('',#240,26.0);
#36=CYLINDRICAL_SURFACE('',#244,31.4885);
#37=CYLINDRICAL_SURFACE('',#250,26.5);
#38=CYLINDRICAL_SURFACE('',#256,31.4885);
#39=CYLINDRICAL_SURFACE('',#266,21.925);
#40=CONICAL_SURFACE('',#238,21.0,45.0);
#41=CONICAL_SURFACE('',#246,31.4885,60.1249999999996);
#42=CONICAL_SURFACE('',#254,27.117867131588,60.1249999999995);
#43=CONICAL_SURFACE('',#260,25.0,75.0000000000005);
#44=CONICAL_SURFACE('',#268,21.925,35.0000000000001);
#45=CONICAL_SURFACE('',#270,22.225,8.29722000000015);
#46=FACE_BOUND('',#109,.T.);
#47=FACE_BOUND('',#110,.T.);
#48=FACE_BOUND('',#111,.T.);
#49=FACE_BOUND('',#112,.T.);
#50=FACE_BOUND('',#113,.T.);
#51=FACE_BOUND('',#114,.T.);
#52=FACE_BOUND('',#115,.T.);
#53=FACE_BOUND('',#116,.T.);
#54=FACE_BOUND('',#117,.T.);
#55=FACE_BOUND('',#118,.T.);
#56=FACE_BOUND('',#119,.T.);
#57=FACE_BOUND('',#120,.T.);
#58=FACE_BOUND('',#121,.T.);
#59=FACE_BOUND('',#122,.T.);
#60=FACE_BOUND('',#123,.T.);
#61=FACE_BOUND('',#124,.T.);
#62=FACE_BOUND('',#125,.T.);
#63=FACE_BOUND('',#126,.T.);
#64=FACE_BOUND('',#127,.T.);
#65=FACE_BOUND('',#128,.T.);
#66=FACE_BOUND('',#129,.T.);
#67=FACE_BOUND('',#130,.T.);
#68=FACE_BOUND('',#131,.T.);
#69=FACE_BOUND('',#132,.T.);
#70=FACE_BOUND('',#133,.T.);
#71=FACE_BOUND('',#134,.T.);
#72=FACE_BOUND('',#135,.T.);
#73=FACE_BOUND('',#136,.T.);
#74=FACE_BOUND('',#137,.T.);
#75=FACE_BOUND('',#138,.T.);
#76=FACE_BOUND('',#139,.T.);
#77=FACE_BOUND('',#140,.T.);
#78=FACE_BOUND('',#141,.T.);
#79=FACE_BOUND('',#142,.T.);
#80=ADVANCED_FACE('',(#106),#99,.F.);
#81=ADVANCED_FACE('',(#46,#47),#40,.T.);
#82=ADVANCED_FACE('',(#48,#49),#35,.T.);
#83=ADVANCED_FACE('',(#50,#51),#100,.F.);
#84=ADVANCED_FACE('',(#52,#53),#36,.T.);
#85=ADVANCED_FACE('',(#54,#55),#41,.T.);
#86=ADVANCED_FACE('',(#56,#57),#101,.F.);
#87=ADVANCED_FACE('',(#58,#59),#37,.T.);
#88=ADVANCED_FACE('',(#60,#61),#102,.F.);
#89=ADVANCED_FACE('',(#62,#63),#42,.T.);
#90=ADVANCED_FACE('',(#64,#65),#38,.T.);
#91=ADVANCED_FACE('',(#66,#67),#103,.F.);
#92=ADVANCED_FACE('',(#68,#69),#43,.F.);
#93=ADVANCED_FACE('',(#70,#71),#104,.F.);
#94=ADVANCED_FACE('',(#72,#73),#34,.F.);
#95=ADVANCED_FACE('',(#74,#75),#39,.T.);
#96=ADVANCED_FACE('',(#76,#77),#44,.T.);
#97=ADVANCED_FACE('',(#78,#79),#45,.T.);
#98=ADVANCED_FACE('',(#107),#105,.F.);
#99=PLANE('',#236);
#100=PLANE('',#242);
#101=PLANE('',#248);
#102=PLANE('',#252);
#103=PLANE('',#258);
#104=PLANE('',#262);
#105=PLANE('',#271);
#106=FACE_OUTER_BOUND('',#108,.T.);
#107=FACE_OUTER_BOUND('',#143,.T.);
#108=EDGE_LOOP('',(#144));
#109=EDGE_LOOP('',(#145));
#110=EDGE_LOOP('',(#146));
#111=EDGE_LOOP('',(#147));
#112=EDGE_LOOP('',(#148));
#113=EDGE_LOOP('',(#149));
#114=EDGE_LOOP('',(#150));
#115=EDGE_LOOP('',(#151));
#116=EDGE_LOOP('',(#152));
#117=EDGE_LOOP('',(#153));
#118=EDGE_LOOP('',(#154));
#119=EDGE_LOOP('',(#155));
#120=EDGE_LOOP('',(#156));
#121=EDGE_LOOP('',(#157));
#122=EDGE_LOOP('',(#158));
#123=EDGE_LOOP('',(#159));
#124=EDGE_LOOP('',(#160));
#125=EDGE_LOOP('',(#161));
#126=EDGE_LOOP('',(#162));
#127=EDGE_LOOP('',(#163));
#128=EDGE_LOOP('',(#164));
#129=EDGE_LOOP('',(#165));
#130=EDGE_LOOP('',(#166));
#131=EDGE_LOOP('',(#167));
#132=EDGE_LOOP('',(#168));
#133=EDGE_LOOP('',(#169));
#134=EDGE_LOOP('',(#170));
#135=EDGE_LOOP('',(#171));
#136=EDGE_LOOP('',(#172));
#137=EDGE_LOOP('',(#173));
#138=EDGE_LOOP('',(#174));
#139=EDGE_LOOP('',(#175));
#140=EDGE_LOOP('',(#176));
#141=EDGE_LOOP('',(#177));
#142=EDGE_LOOP('',(#178));
#143=EDGE_LOOP('',(#179));
#144=ORIENTED_EDGE('',*,*,#198,.F.);
#145=ORIENTED_EDGE('',*,*,#199,.F.);
#146=ORIENTED_EDGE('',*,*,#198,.T.);
#147=ORIENTED_EDGE('',*,*,#200,.F.);
#148=ORIENTED_EDGE('',*,*,#199,.T.);
#149=ORIENTED_EDGE('',*,*,#201,.F.);
#150=ORIENTED_EDGE('',*,*,#200,.T.);
#151=ORIENTED_EDGE('',*,*,#202,.F.);
#152=ORIENTED_EDGE('',*,*,#201,.T.);
#153=ORIENTED_EDGE('',*,*,#203,.F.);
#154=ORIENTED_EDGE('',*,*,#202,.T.);
#155=ORIENTED_EDGE('',*,*,#204,.F.);
#156=ORIENTED_EDGE('',*,*,#203,.T.);
#157=ORIENTED_EDGE('',*,*,#205,.F.);
#158=ORIENTED_EDGE('',*,*,#204,.T.);
#159=ORIENTED_EDGE('',*,*,#206,.F.);
#160=ORIENTED_EDGE('',*,*,#205,.T.);
#161=ORIENTED_EDGE('',*,*,#207,.F.);
#162=ORIENTED_EDGE('',*,*,#206,.T.);
#163=ORIENTED_EDGE('',*,*,#208,.F.);
#164=ORIENTED_EDGE('',*,*,#207,.T.);
#165=ORIENTED_EDGE('',*,*,#209,.F.);
#166=ORIENTED_EDGE('',*,*,#208,.T.);
#167=ORIENTED_EDGE('',*,*,#210,.F.);
#168=ORIENTED_EDGE('',*,*,#209,.T.);
#169=ORIENTED_EDGE('',*,*,#211,.F.);
#170=ORIENTED_EDGE('',*,*,#210,.T.);
#171=ORIENTED_EDGE('',*,*,#212,.F.);
#172=ORIENTED_EDGE('',*,*,#211,.T.);
#173=ORIENTED_EDGE('',*,*,#213,.F.);
#174=ORIENTED_EDGE('',*,*,#212,.T.);
#175=ORIENTED_EDGE('',*,*,#214,.F.);
#176=ORIENTED_EDGE('',*,*,#213,.T.);
#177=ORIENTED_EDGE('',*,*,#215,.F.);
#178=ORIENTED_EDGE('',*,*,#214,.T.);
#179=ORIENTED_EDGE('',*,*,#215,.T.);
#180=VERTEX_POINT('',#350);
#181=VERTEX_POINT('',#353);
#182=VERTEX_POINT('',#356);
#183=VERTEX_POINT('',#359);
#184=VERTEX_POINT('',#362);
#185=VERTEX_POINT('',#365);
#186=VERTEX_POINT('',#368);
#187=VERTEX_POINT('',#371);
#188=VERTEX_POINT('',#374);
#189=VERTEX_POINT('',#377);
#190=VERTEX_POINT('',#380);
#191=VERTEX_POINT('',#383);
#192=VERTEX_POINT('',#386);
#193=VERTEX_POINT('',#389);
#194=VERTEX_POINT('',#392);
#195=VERTEX_POINT('',#395);
#196=VERTEX_POINT('',#398);
#197=VERTEX_POINT('',#401);
#198=EDGE_CURVE('',#180,#180,#216,.T.);
#199=EDGE_CURVE('',#181,#181,#217,.T.);
#200=EDGE_CURVE('',#182,#182,#218,.T.);
#201=EDGE_CURVE('',#183,#183,#219,.T.);
#202=EDGE_CURVE('',#184,#184,#220,.T.);
#203=EDGE_CURVE('',#185,#185,#221,.T.);
#204=EDGE_CURVE('',#186,#186,#222,.T.);
#205=EDGE_CURVE('',#187,#187,#223,.T.);
#206=EDGE_CURVE('',#188,#188,#224,.T.);
#207=EDGE_CURVE('',#189,#189,#225,.T.);
#208=EDGE_CURVE('',#190,#190,#226,.T.);
#209=EDGE_CURVE('',#191,#191,#227,.T.);
#210=EDGE_CURVE('',#192,#192,#228,.T.);
#211=EDGE_CURVE('',#193,#193,#229,.T.);
#212=EDGE_CURVE('',#194,#194,#230,.T.);
#213=EDGE_CURVE('',#195,#195,#231,.T.);
#214=EDGE_CURVE('',#196,#196,#232,.T.);
#215=EDGE_CURVE('',#197,#197,#233,.T.);
#216=CIRCLE('',#235,21.0);
#217=CIRCLE('',#237,26.0);
#218=CIRCLE('',#239,26.0);
#219=CIRCLE('',#241,31.4885);
#220=CIRCLE('',#243,31.4885);
#221=CIRCLE('',#245,27.117867131588);
#222=CIRCLE('',#247,26.5);
#223=CIRCLE('',#249,26.5);
#224=CIRCLE('',#251,27.117867131588);
#225=CIRCLE('',#253,31.4885);
#226=CIRCLE('',#255,31.4885);
#227=CIRCLE('',#257,25.0);
#228=CIRCLE('',#259,23.8803847577293);
#229=CIRCLE('',#261,22.425);
#230=CIRCLE('',#263,21.925);
#231=CIRCLE('',#265,21.925);
#232=CIRCLE('',#267,22.225);
#233=CIRCLE('',#269,12.6874125357568);
#234=AXIS2_PLACEMENT_3D('',#348,#272,#273);
#235=AXIS2_PLACEMENT_3D('',#349,#274,#275);
#236=AXIS2_PLACEMENT_3D('',#351,#276,#277);
#237=AXIS2_PLACEMENT_3D('',#352,#278,#279);
#238=AXIS2_PLACEMENT_3D('',#354,#280,#281);
#239=AXIS2_PLACEMENT_3D('',#355,#282,#283);
#240=AXIS2_PLACEMENT_3D('',#357,#284,#285);
#241=AXIS2_PLACEMENT_3D('',#358,#286,#287);
#242=AXIS2_PLACEMENT_3D('',#360,#288,#289);
#243=AXIS2_PLACEMENT_3D('',#361,#290,#291);
#244=AXIS2_PLACEMENT_3D('',#363,#292,#293);
#245=AXIS2_PLACEMENT_3D('',#364,#294,#295);
#246=AXIS2_PLACEMENT_3D('',#366,#296,#297);
#247=AXIS2_PLACEMENT_3D('',#367,#298,#299);
#248=AXIS2_PLACEMENT_3D('',#369,#300,#301);
#249=AXIS2_PLACEMENT_3D('',#370,#302,#303);
#250=AXIS2_PLACEMENT_3D('',#372,#304,#305);
#251=AXIS2_PLACEMENT_3D('',#373,#306,#307);
#252=AXIS2_PLACEMENT_3D('',#375,#308,#309);
#253=AXIS2_PLACEMENT_3D('',#376,#310,#311);
#254=AXIS2_PLACEMENT_3D('',#378,#312,#313);
#255=AXIS2_PLACEMENT_3D('',#379,#314,#315);
#256=AXIS2_PLACEMENT_3D('',#381,#316,#317);
#257=AXIS2_PLACEMENT_3D('',#382,#318,#319);
#258=AXIS2_PLACEMENT_3D('',#384,#320,#321);
#259=AXIS2_PLACEMENT_3D('',#385,#322,#323);
#260=AXIS2_PLACEMENT_3D('',#387,#324,#325);
#261=AXIS2_PLACEMENT_3D('',#388,#326,#327);
#262=AXIS2_PLACEMENT_3D('',#390,#328,#329);
#263=AXIS2_PLACEMENT_3D('',#391,#330,#331);
#264=AXIS2_PLACEMENT_3D('',#393,#332,#333);
#265=AXIS2_PLACEMENT_3D('',#394,#334,#335);
#266=AXIS2_PLACEMENT_3D('',#396,#336,#337);
#267=AXIS2_PLACEMENT_3D('',#397,#338,#339);
#268=AXIS2_PLACEMENT_3D('',#399,#340,#341);
#269=AXIS2_PLACEMENT_3D('',#400,#342,#343);
#270=AXIS2_PLACEMENT_3D('',#402,#344,#345);
#271=AXIS2_PLACEMENT_3D('',#403,#346,#347);
#272=DIRECTION('',(0.0,0.0,1.0));
#273=DIRECTION('',(1.0,0.0,0.0));
#274=DIRECTION('',(4.07421293440424E-17,-1.35807097813475E-17,1.0));
#275=DIRECTION('',(1.0,0.0,0.0));
#276=DIRECTION('',(4.07421293440424E-17,-1.35807097813475E-17,1.0));
#277=DIRECTION('',(1.0,0.0,-4.16333634234434E-17));
#278=DIRECTION('',(4.07421293440424E-17,-1.35807097813475E-17,1.0));
#279=DIRECTION('',(1.0,0.0,0.0));
#280=DIRECTION('',(4.07421293440424E-17,-1.35807097813475E-17,1.0));
#281=DIRECTION('',(1.0,-3.77263456295247E-34,5.4369393958137E-17));
#282=DIRECTION('',(4.07421293440424E-17,-1.35807097813475E-17,1.0));
#283=DIRECTION('',(1.0,0.0,0.0));
#284=DIRECTION('',(4.07421293440424E-17,-1.35807097813475E-17,1.0));
#285=DIRECTION('',(1.0,0.0,-4.07421293440424E-17));
#286=DIRECTION('',(4.07421293440424E-17,-1.35807097813475E-17,1.0));
#287=DIRECTION('',(1.0,0.0,0.0));
#288=DIRECTION('',(4.07421293440424E-17,-1.35807097813475E-17,1.0));
#289=DIRECTION('',(1.0,0.0,-4.16333634234434E-17));
#290=DIRECTION('',(4.07421293440424E-17,-1.35807097813475E-17,1.0));
#291=DIRECTION('',(1.0,0.0,0.0));
#292=DIRECTION('',(4.07421293440424E-17,-1.35807097813475E-17,1.0));
#293=DIRECTION('',(1.0,0.0,-4.07421293440424E-17));
#294=DIRECTION('',(4.07421293440424E-17,-1.35807097813475E-17,1.0));
#295=DIRECTION('',(1.0,0.0,0.0));
#296=DIRECTION('',(-4.07421293440424E-17,1.35807097813475E-17,-1.0));
#297=DIRECTION('',(-1.0,2.44504014671866E-34,-2.34911613731586E-17));
#298=DIRECTION('',(4.07421293440424E-17,-1.35807097813475E-17,1.0));
#299=DIRECTION('',(1.0,0.0,0.0));
#300=DIRECTION('',(-4.07421293440424E-17,1.35807097813475E-17,-1.0));
#301=DIRECTION('',(-1.0,0.0,4.16333634234434E-17));
#302=DIRECTION('',(4.07421293440424E-17,-1.35807097813475E-17,1.0));
#303=DIRECTION('',(1.0,0.0,-6.54612632444078E-17));
#304=DIRECTION('',(4.07421293440424E-17,-1.35807097813475E-17,1.0));
#305=DIRECTION('',(1.0,0.0,-4.07421293440424E-17));
#306=DIRECTION('',(4.07421293440424E-17,-1.35807097813475E-17,1.0));
#307=DIRECTION('',(1.0,0.0,-6.39697608797607E-17));
#308=DIRECTION('',(4.07421293440424E-17,-1.35807097813475E-17,1.0));
#309=DIRECTION('',(1.0,0.0,-3.98986399474666E-17));
#310=DIRECTION('',(4.07421293440424E-17,-1.35807097813475E-17,1.0));
#311=DIRECTION('',(1.0,0.0,-5.50906990163649E-17));
#312=DIRECTION('',(4.07421293440424E-17,-1.35807097813475E-17,1.0));
#313=DIRECTION('',(1.0,-4.08514119985249E-35,-6.377918000276E-17));
#314=DIRECTION('',(4.07421293440424E-17,-1.35807097813475E-17,1.0));
#315=DIRECTION('',(1.0,0.0,-4.13180242622737E-17));
#316=DIRECTION('',(4.07421293440424E-17,-1.35807097813475E-17,1.0));
#317=DIRECTION('',(1.0,0.0,-4.07421293440424E-17));
#318=DIRECTION('',(4.07421293440424E-17,-1.35807097813475E-17,1.0));
#319=DIRECTION('',(1.0,0.0,-4.33680868994202E-17));
#320=DIRECTION('',(-4.07421293440424E-17,1.35807097813475E-17,-1.0));
#321=DIRECTION('',(-1.0,0.0,4.0766001685455E-17));
#322=DIRECTION('',(4.07421293440424E-17,-1.35807097813475E-17,1.0));
#323=DIRECTION('',(1.0,0.0,-3.6321095609972E-17));
#324=DIRECTION('',(4.07421293440424E-17,-1.35807097813475E-17,1.0));
#325=DIRECTION('',(1.0,-1.8902769841761E-34,-2.98966798221652E-17));
#326=DIRECTION('',(4.07421293440424E-17,-1.35807097813475E-17,1.0));
#327=DIRECTION('',(1.0,0.0,-3.86783383718352E-17));
#328=DIRECTION('',(-4.07421293440424E-17,1.35807097813475E-17,-1.0));
#329=DIRECTION('',(-1.0,0.0,4.0766001685455E-17));
#330=DIRECTION('',(4.07421293440424E-17,-1.35807097813475E-17,1.0));
#331=DIRECTION('',(1.0,0.0,-3.956039853995E-17));
#332=DIRECTION('',(4.07421293440424E-17,-1.35807097813475E-17,1.0));
#333=DIRECTION('',(1.0,0.0,-4.25640983745672E-17));
#334=DIRECTION('',(4.07421293440424E-17,-1.35807097813475E-17,1.0));
#335=DIRECTION('',(1.0,0.0,-3.956039853995E-17));
#336=DIRECTION('',(4.07421293440424E-17,-1.35807097813475E-17,1.0));
#337=DIRECTION('',(1.0,0.0,-4.07421293440424E-17));
#338=DIRECTION('',(4.07421293440424E-17,-1.35807097813475E-17,1.0));
#339=DIRECTION('',(1.0,0.0,-4.07421293440424E-17));
#340=DIRECTION('',(4.07421293440424E-17,-1.35807097813475E-17,1.0));
#341=DIRECTION('',(1.0,-7.55303701082008E-34,3.79100835466144E-17));
#342=DIRECTION('',(4.07421293440424E-17,-1.35807097813475E-17,1.0));
#343=DIRECTION('',(1.0,0.0,0.0));
#344=DIRECTION('',(-4.07421293440424E-17,1.35807097813475E-17,-1.0));
#345=DIRECTION('',(-1.0,5.89073769876213E-34,-4.33757719118098E-17));
#346=DIRECTION('',(-4.07421293440424E-17,1.35807097813475E-17,-1.0));
#347=DIRECTION('',(-1.0,0.0,4.16333634234434E-17));
#348=CARTESIAN_POINT('',(0.0,0.0,0.0));
#349=CARTESIAN_POINT('',(-2.64823840736276E-15,8.82746135787586E-16,-65.0));
#350=CARTESIAN_POINT('',(21.0,8.82746135787586E-16,-65.0));
#351=CARTESIAN_POINT('',(6.42787609686539,7.66044443118978,-65.0));
#352=CARTESIAN_POINT('',(-2.44452776064255E-15,8.14842586880849E-16,-60.0));
#353=CARTESIAN_POINT('',(26.0,8.14842586880849E-16,-60.0));
#354=CARTESIAN_POINT('',(-2.64823840736276E-15,8.82746135787586E-16,-65.0));
#355=CARTESIAN_POINT('',(-1.10003749228915E-15,3.66679164096382E-16,-27.0));
#356=CARTESIAN_POINT('',(26.0,3.66679164096382E-16,-27.0));
#357=CARTESIAN_POINT('',(0.0,0.0,0.0));
#358=CARTESIAN_POINT('',(-1.10003749228915E-15,3.66679164096382E-16,-27.0));
#359=CARTESIAN_POINT('',(31.4885,3.66679164096382E-16,-27.0));
#360=CARTESIAN_POINT('',(16.71247785185,19.9171555210934,-27.0));
#361=CARTESIAN_POINT('',(-8.80465461236001E-16,2.93488487078667E-16,-21.610688381086));
#362=CARTESIAN_POINT('',(31.4885,2.93488487078667E-16,-21.610688381086));
#363=CARTESIAN_POINT('',(0.0,0.0,0.0));
#364=CARTESIAN_POINT('',(-7.78174670471211E-16,2.59391556823737E-16,-19.1));
#365=CARTESIAN_POINT('',(27.117867131588,2.59391556823737E-16,-19.1));
#366=CARTESIAN_POINT('',(-8.80465461236001E-16,2.93488487078667E-16,-21.610688381086));
#367=CARTESIAN_POINT('',(-7.78174670471211E-16,2.59391556823737E-16,-19.1));
#368=CARTESIAN_POINT('',(26.5,2.59391556823737E-16,-19.1));
#369=CARTESIAN_POINT('',(17.4310289933106,20.7734914253918,-19.1));
#370=CARTESIAN_POINT('',(-5.74464023750998E-16,1.91488007916999E-16,-14.1));
#371=CARTESIAN_POINT('',(26.5,1.91488007916999E-16,-14.1));
#372=CARTESIAN_POINT('',(0.0,0.0,0.0));
#373=CARTESIAN_POINT('',(-5.74464023750998E-16,1.91488007916999E-16,-14.1));
#374=CARTESIAN_POINT('',(27.117867131588,1.91488007916999E-16,-14.1));
#375=CARTESIAN_POINT('',(17.0338716566933,20.3001777426529,-14.1));
#376=CARTESIAN_POINT('',(-4.72173232986208E-16,1.57391077662069E-16,-11.589311618914));
#377=CARTESIAN_POINT('',(31.4885,1.57391077662069E-16,-11.589311618914));
#378=CARTESIAN_POINT('',(-5.74464023750998E-16,1.91488007916999E-16,-14.1));
#379=CARTESIAN_POINT('',(-4.07421293440424E-17,1.35807097813475E-17,-1.0));
#380=CARTESIAN_POINT('',(31.4885,1.35807097813475E-17,-1.0));
#381=CARTESIAN_POINT('',(0.0,0.0,0.0));
#382=CARTESIAN_POINT('',(-4.07421293440424E-17,1.35807097813475E-17,-1.0));
#383=CARTESIAN_POINT('',(25.0,1.35807097813475E-17,-1.0));
#384=CARTESIAN_POINT('',(20.2404176476146,24.1215904471519,-1.0));
#385=CARTESIAN_POINT('',(-5.29647681472552E-17,1.76549227157517E-17,-1.3));
#386=CARTESIAN_POINT('',(23.8803847577293,1.76549227157517E-17,-1.3));
#387=CARTESIAN_POINT('',(-4.07421293440424E-17,1.35807097813475E-17,-1.0));
#388=CARTESIAN_POINT('',(-5.29647681472548E-17,1.76549227157516E-17,-1.29999999999999));
#389=CARTESIAN_POINT('',(22.425,1.76549227157516E-17,-1.29999999999999));
#390=CARTESIAN_POINT('',(15.3500154368157,18.2934360432017,-1.3));
#391=CARTESIAN_POINT('',(-3.25937034752335E-17,1.08645678250778E-17,-0.799999999999988));
#392=CARTESIAN_POINT('',(21.925,1.08645678250778E-17,-0.799999999999989));
#393=CARTESIAN_POINT('',(0.0,0.0,-0.799999999999988));
#394=CARTESIAN_POINT('',(-1.74557372439372E-17,5.8185790813124E-18,-0.428444402022637));
#395=CARTESIAN_POINT('',(21.925,5.8185790813124E-18,-0.428444402022638));
#396=CARTESIAN_POINT('',(0.0,0.0,0.0));
#397=CARTESIAN_POINT('',(2.96998631362729E-31,-9.89995437875763E-32,7.2897179441643E-15));
#398=CARTESIAN_POINT('',(22.225,-9.89995437875763E-32,6.38422411949295E-15));
#399=CARTESIAN_POINT('',(-1.74557372439372E-17,5.8185790813124E-18,-0.428444402022637));
#400=CARTESIAN_POINT('',(2.66453525910038E-15,-8.88178419700125E-16,65.4));
#401=CARTESIAN_POINT('',(12.6874125357568,-8.88178419700125E-16,65.4));
#402=CARTESIAN_POINT('',(2.96998631362729E-31,-9.89995437875763E-32,7.2897179441643E-15));
#403=CARTESIAN_POINT('',(5.46803349870097,6.51654856650237,65.4));
#404=MECHANICAL_DESIGN_GEOMETRIC_PRESENTATION_REPRESENTATION('',(#24),#405);
#405=(GEOMETRIC_REPRESENTATION_CONTEXT(3)GLOBAL_UNCERTAINTY_ASSIGNED_CONTEXT((#406))
     GLOBAL_UNIT_ASSIGNED_CONTEXT((#412,#408,#407))REPRESENTATION_CONTEXT('392','TOP_LEVEL_ASSEMBLY_PART'));
#406=UNCERTAINTY_MEASURE_WITH_UNIT(LENGTH_MEASURE(2.0E-5),#412,'DISTANCE_ACCURACY_VALUE',
     'Maximum Tolerance applied to model');
#407=(NAMED_UNIT(*)SI_UNIT($,.STERADIAN.)SOLID_ANGLE_UNIT());
#408=(CONVERSION_BASED_UNIT('DEGREE',#410)NAMED_UNIT(*)PLANE_ANGLE_UNIT());
#409=DIMENSIONAL_EXPONENTS(0.0,0.0,0.0,0.0,0.0,0.0,0.0);
#410=PLANE_ANGLE_MEASURE_WITH_UNIT(PLANE_ANGLE_MEASURE(0.0174532925),#411);
#411=(NAMED_UNIT(*)PLANE_ANGLE_UNIT()SI_UNIT($,.RADIAN.));
#412=(LENGTH_UNIT()NAMED_UNIT(*)SI_UNIT(.MILLI.,.METRE.));
#413=CARTESIAN_POINT('',(0.0,0.0,0.0));
#414=DIRECTION('',(0.0,0.0,1.0));
#415=DIRECTION('',(1.0,0.0,0.0));
#416=AXIS2_PLACEMENT_3D('PCS',#413,#414,#415);
#417=CARTESIAN_POINT('',(0.0,0.0,0.0));
#418=DIRECTION('',(0.0,0.0,1.0));
#419=DIRECTION('',(1.0,0.0,0.0));
#420=AXIS2_PLACEMENT_3D('MCS',#417,#418,#419);
#421=CARTESIAN_POINT('',(0.0,0.0,-65.0));
#422=DIRECTION('',(0.0,0.0,1.0));
#423=DIRECTION('',(1.0,0.0,0.0));
#424=AXIS2_PLACEMENT_3D('CSW',#421,#422,#423);
#425=CONSTRUCTIVE_GEOMETRY_REPRESENTATION('supplemental geometry',(#416,#420,#424),
     #405);
#426=CONSTRUCTIVE_GEOMETRY_REPRESENTATION_RELATIONSHIP('supplemental geometry',$,
     #22,#425);
ENDSEC;
END-ISO-10303-21;
