ISO-10303-21;
HEADER;
/* Generated by software containing ST-Developer
 * from STEP Tools, Inc. (www.steptools.com) 
 */
/* OPTION: using custom schema-name function */

FILE_DESCRIPTION(
/* description */ (''),
/* implementation_level */ '2;1');

FILE_NAME(
/* name */ '1493025760523.stp',
/* time_stamp */ '2017-04-24T11:22:43+02:00',
/* author */ (''),
/* organization */ ('SMS'),
/* preprocessor_version */ 'ST-DEVELOPER v15',
/* originating_system */ 'SIEMENS PLM Software NX 8.5',
/* authorisation */ '');

FILE_SCHEMA (('AUTOMOTIVE_DESIGN { 1 0 10303 214 3 1 1 1 }'));
ENDSEC;

DATA;
#10=CONSTRUCTIVE_GEOMETRY_REPRESENTATION_RELATIONSHIP(
'supplemental geometry','',#26,#11);
#11=CONSTRUCTIVE_GEOMETRY_REPRESENTATION('supplemental geometry',(#347,
#348,#349,#350),#599);
#12=GEOMETRICALLY_BOUNDED_WIREFRAME_SHAPE_REPRESENTATION(
'392.55514-4040070-636200737633802135-1-None',(#27),#599);
#13=SHAPE_REPRESENTATION_RELATIONSHIP('None',
'relationship between 392.55514-4040070-636200737633802135-1-None and 
392.55514-4040070-636200737633802135-1-None',#26,#15);
#14=SHAPE_REPRESENTATION_RELATIONSHIP('None',
'relationship between 392.55514-4040070-636200737633802135-1-None and 
392.55514-4040070-636200737633802135-1-None',#26,#12);
#15=ADVANCED_BREP_SHAPE_REPRESENTATION(
'392.55514-4040070-636200737633802135-1-None',(#33),#599);
#16=SHAPE_DEFINITION_REPRESENTATION(#17,#26);
#17=PRODUCT_DEFINITION_SHAPE('','',#18);
#18=PRODUCT_DEFINITION(' ','',#20,#19);
#19=PRODUCT_DEFINITION_CONTEXT('part definition',#25,'design');
#20=PRODUCT_DEFINITION_FORMATION_WITH_SPECIFIED_SOURCE(' ',' ',#22,
 .NOT_KNOWN.);
#21=PRODUCT_RELATED_PRODUCT_CATEGORY('part','',(#22));
#22=PRODUCT('392.55514-4040070-636200737633802135-1',
'392.55514-4040070-636200737633802135-1',' ',(#23));
#23=PRODUCT_CONTEXT(' ',#25,'mechanical');
#24=APPLICATION_PROTOCOL_DEFINITION('international standard',
'automotive_design',2010,#25);
#25=APPLICATION_CONTEXT(
'core data for automotive mechanical design processes');
#26=SHAPE_REPRESENTATION('392.55514-4040070-636200737633802135-1-None',
(#346),#599);
#27=GEOMETRIC_CURVE_SET('None',(#515,#516,#517));
#28=SURFACE_STYLE_USAGE(.BOTH.,#29);
#29=SURFACE_SIDE_STYLE('',(#30));
#30=SURFACE_STYLE_FILL_AREA(#31);
#31=FILL_AREA_STYLE('',(#32));
#32=FILL_AREA_STYLE_COLOUR('',#345);
#33=MANIFOLD_SOLID_BREP('NOCUT',#34);
#34=CLOSED_SHELL('',(#101,#102,#103,#104,#105,#106,#107,#108,#109,#110,
#111,#112,#113,#114,#115,#116,#117,#118,#119,#120,#121,#122,#123,#124,#125,
#126));
#35=TOROIDAL_SURFACE('',#360,22.425,0.5);
#36=TOROIDAL_SURFACE('',#396,30.5,1.);
#37=CYLINDRICAL_SURFACE('',#358,21.925);
#38=CYLINDRICAL_SURFACE('',#368,31.4885);
#39=CYLINDRICAL_SURFACE('',#374,26.5);
#40=CYLINDRICAL_SURFACE('',#380,31.4885);
#41=CYLINDRICAL_SURFACE('',#384,25.);
#42=CYLINDRICAL_SURFACE('',#388,23.75);
#43=CYLINDRICAL_SURFACE('',#392,25.);
#44=CYLINDRICAL_SURFACE('',#398,31.5);
#45=CONICAL_SURFACE('',#354,12.6874125357568,8.29722000000014);
#46=CONICAL_SURFACE('',#356,22.225,35.0000000000021);
#47=CONICAL_SURFACE('',#364,23.8803847577293,75.0000000000007);
#48=CONICAL_SURFACE('',#370,31.4885,60.1250000000001);
#49=CONICAL_SURFACE('',#378,27.117867131588,60.1250000000001);
#50=CONICAL_SURFACE('',#386,25.,30.0000000000001);
#51=CONICAL_SURFACE('',#390,23.7586969212423,30.);
#52=CONICAL_SURFACE('',#400,31.5,60.);
#53=FACE_BOUND('',#138,.T.);
#54=FACE_BOUND('',#139,.T.);
#55=FACE_BOUND('',#140,.T.);
#56=FACE_BOUND('',#141,.T.);
#57=FACE_BOUND('',#142,.T.);
#58=FACE_BOUND('',#143,.T.);
#59=FACE_BOUND('',#144,.T.);
#60=FACE_BOUND('',#145,.T.);
#61=FACE_BOUND('',#146,.T.);
#62=FACE_BOUND('',#147,.T.);
#63=FACE_BOUND('',#148,.T.);
#64=FACE_BOUND('',#149,.T.);
#65=FACE_BOUND('',#150,.T.);
#66=FACE_BOUND('',#151,.T.);
#67=FACE_BOUND('',#152,.T.);
#68=FACE_BOUND('',#153,.T.);
#69=FACE_BOUND('',#154,.T.);
#70=FACE_BOUND('',#155,.T.);
#71=FACE_BOUND('',#156,.T.);
#72=FACE_BOUND('',#157,.T.);
#73=FACE_BOUND('',#158,.T.);
#74=FACE_BOUND('',#159,.T.);
#75=FACE_BOUND('',#160,.T.);
#76=FACE_BOUND('',#161,.T.);
#77=FACE_BOUND('',#162,.T.);
#78=FACE_BOUND('',#163,.T.);
#79=FACE_BOUND('',#164,.T.);
#80=FACE_BOUND('',#165,.T.);
#81=FACE_BOUND('',#166,.T.);
#82=FACE_BOUND('',#167,.T.);
#83=FACE_BOUND('',#168,.T.);
#84=FACE_BOUND('',#169,.T.);
#85=FACE_BOUND('',#170,.T.);
#86=FACE_BOUND('',#171,.T.);
#87=FACE_BOUND('',#172,.T.);
#88=FACE_BOUND('',#173,.T.);
#89=FACE_BOUND('',#174,.T.);
#90=FACE_BOUND('',#175,.T.);
#91=FACE_BOUND('',#176,.T.);
#92=FACE_BOUND('',#177,.T.);
#93=FACE_BOUND('',#178,.T.);
#94=FACE_BOUND('',#179,.T.);
#95=FACE_BOUND('',#180,.T.);
#96=FACE_BOUND('',#181,.T.);
#97=FACE_BOUND('',#182,.T.);
#98=FACE_BOUND('',#183,.T.);
#99=FACE_BOUND('',#184,.T.);
#100=FACE_BOUND('',#185,.T.);
#101=ADVANCED_FACE('',(#135),#127,.T.);
#102=ADVANCED_FACE('',(#53,#54),#45,.T.);
#103=ADVANCED_FACE('',(#55,#56),#46,.T.);
#104=ADVANCED_FACE('',(#57,#58),#37,.T.);
#105=ADVANCED_FACE('',(#59,#60),#35,.F.);
#106=ADVANCED_FACE('',(#61,#62),#128,.T.);
#107=ADVANCED_FACE('',(#63,#64),#47,.F.);
#108=ADVANCED_FACE('',(#65,#66),#129,.T.);
#109=ADVANCED_FACE('',(#67,#68),#38,.T.);
#110=ADVANCED_FACE('',(#69,#70),#48,.T.);
#111=ADVANCED_FACE('',(#71,#72),#130,.T.);
#112=ADVANCED_FACE('',(#73,#74),#39,.T.);
#113=ADVANCED_FACE('',(#75,#76),#131,.T.);
#114=ADVANCED_FACE('',(#77,#78),#49,.T.);
#115=ADVANCED_FACE('',(#79,#80),#40,.T.);
#116=ADVANCED_FACE('',(#81,#82),#132,.T.);
#117=ADVANCED_FACE('',(#83,#84),#41,.T.);
#118=ADVANCED_FACE('',(#85,#86),#50,.T.);
#119=ADVANCED_FACE('',(#87,#88),#42,.T.);
#120=ADVANCED_FACE('',(#89,#90),#51,.T.);
#121=ADVANCED_FACE('',(#91,#92),#43,.T.);
#122=ADVANCED_FACE('',(#93,#94),#133,.T.);
#123=ADVANCED_FACE('',(#95,#96),#36,.T.);
#124=ADVANCED_FACE('',(#97,#98),#44,.T.);
#125=ADVANCED_FACE('',(#99,#100),#52,.T.);
#126=ADVANCED_FACE('',(#136),#134,.T.);
#127=PLANE('',#352);
#128=PLANE('',#362);
#129=PLANE('',#366);
#130=PLANE('',#372);
#131=PLANE('',#376);
#132=PLANE('',#382);
#133=PLANE('',#394);
#134=PLANE('',#401);
#135=FACE_OUTER_BOUND('',#137,.T.);
#136=FACE_OUTER_BOUND('',#186,.T.);
#137=EDGE_LOOP('',(#187));
#138=EDGE_LOOP('',(#188));
#139=EDGE_LOOP('',(#189));
#140=EDGE_LOOP('',(#190));
#141=EDGE_LOOP('',(#191));
#142=EDGE_LOOP('',(#192));
#143=EDGE_LOOP('',(#193));
#144=EDGE_LOOP('',(#194));
#145=EDGE_LOOP('',(#195));
#146=EDGE_LOOP('',(#196));
#147=EDGE_LOOP('',(#197));
#148=EDGE_LOOP('',(#198));
#149=EDGE_LOOP('',(#199));
#150=EDGE_LOOP('',(#200));
#151=EDGE_LOOP('',(#201));
#152=EDGE_LOOP('',(#202));
#153=EDGE_LOOP('',(#203));
#154=EDGE_LOOP('',(#204));
#155=EDGE_LOOP('',(#205));
#156=EDGE_LOOP('',(#206));
#157=EDGE_LOOP('',(#207));
#158=EDGE_LOOP('',(#208));
#159=EDGE_LOOP('',(#209));
#160=EDGE_LOOP('',(#210));
#161=EDGE_LOOP('',(#211));
#162=EDGE_LOOP('',(#212));
#163=EDGE_LOOP('',(#213));
#164=EDGE_LOOP('',(#214));
#165=EDGE_LOOP('',(#215));
#166=EDGE_LOOP('',(#216));
#167=EDGE_LOOP('',(#217));
#168=EDGE_LOOP('',(#218));
#169=EDGE_LOOP('',(#219));
#170=EDGE_LOOP('',(#220));
#171=EDGE_LOOP('',(#221));
#172=EDGE_LOOP('',(#222));
#173=EDGE_LOOP('',(#223));
#174=EDGE_LOOP('',(#224));
#175=EDGE_LOOP('',(#225));
#176=EDGE_LOOP('',(#226));
#177=EDGE_LOOP('',(#227));
#178=EDGE_LOOP('',(#228));
#179=EDGE_LOOP('',(#229));
#180=EDGE_LOOP('',(#230));
#181=EDGE_LOOP('',(#231));
#182=EDGE_LOOP('',(#232));
#183=EDGE_LOOP('',(#233));
#184=EDGE_LOOP('',(#234));
#185=EDGE_LOOP('',(#235));
#186=EDGE_LOOP('',(#236));
#187=ORIENTED_EDGE('',*,*,#262,.T.);
#188=ORIENTED_EDGE('',*,*,#263,.T.);
#189=ORIENTED_EDGE('',*,*,#262,.F.);
#190=ORIENTED_EDGE('',*,*,#264,.T.);
#191=ORIENTED_EDGE('',*,*,#263,.F.);
#192=ORIENTED_EDGE('',*,*,#265,.T.);
#193=ORIENTED_EDGE('',*,*,#264,.F.);
#194=ORIENTED_EDGE('',*,*,#266,.T.);
#195=ORIENTED_EDGE('',*,*,#265,.F.);
#196=ORIENTED_EDGE('',*,*,#267,.T.);
#197=ORIENTED_EDGE('',*,*,#266,.F.);
#198=ORIENTED_EDGE('',*,*,#268,.T.);
#199=ORIENTED_EDGE('',*,*,#267,.F.);
#200=ORIENTED_EDGE('',*,*,#269,.T.);
#201=ORIENTED_EDGE('',*,*,#268,.F.);
#202=ORIENTED_EDGE('',*,*,#270,.T.);
#203=ORIENTED_EDGE('',*,*,#269,.F.);
#204=ORIENTED_EDGE('',*,*,#271,.T.);
#205=ORIENTED_EDGE('',*,*,#270,.F.);
#206=ORIENTED_EDGE('',*,*,#272,.T.);
#207=ORIENTED_EDGE('',*,*,#271,.F.);
#208=ORIENTED_EDGE('',*,*,#273,.T.);
#209=ORIENTED_EDGE('',*,*,#272,.F.);
#210=ORIENTED_EDGE('',*,*,#274,.T.);
#211=ORIENTED_EDGE('',*,*,#273,.F.);
#212=ORIENTED_EDGE('',*,*,#275,.T.);
#213=ORIENTED_EDGE('',*,*,#274,.F.);
#214=ORIENTED_EDGE('',*,*,#276,.T.);
#215=ORIENTED_EDGE('',*,*,#275,.F.);
#216=ORIENTED_EDGE('',*,*,#277,.T.);
#217=ORIENTED_EDGE('',*,*,#276,.F.);
#218=ORIENTED_EDGE('',*,*,#278,.T.);
#219=ORIENTED_EDGE('',*,*,#277,.F.);
#220=ORIENTED_EDGE('',*,*,#279,.T.);
#221=ORIENTED_EDGE('',*,*,#278,.F.);
#222=ORIENTED_EDGE('',*,*,#280,.T.);
#223=ORIENTED_EDGE('',*,*,#279,.F.);
#224=ORIENTED_EDGE('',*,*,#281,.T.);
#225=ORIENTED_EDGE('',*,*,#280,.F.);
#226=ORIENTED_EDGE('',*,*,#282,.T.);
#227=ORIENTED_EDGE('',*,*,#281,.F.);
#228=ORIENTED_EDGE('',*,*,#283,.T.);
#229=ORIENTED_EDGE('',*,*,#282,.F.);
#230=ORIENTED_EDGE('',*,*,#284,.T.);
#231=ORIENTED_EDGE('',*,*,#283,.F.);
#232=ORIENTED_EDGE('',*,*,#285,.T.);
#233=ORIENTED_EDGE('',*,*,#284,.F.);
#234=ORIENTED_EDGE('',*,*,#286,.T.);
#235=ORIENTED_EDGE('',*,*,#285,.F.);
#236=ORIENTED_EDGE('',*,*,#286,.F.);
#237=VERTEX_POINT('',#523);
#238=VERTEX_POINT('',#526);
#239=VERTEX_POINT('',#529);
#240=VERTEX_POINT('',#532);
#241=VERTEX_POINT('',#535);
#242=VERTEX_POINT('',#538);
#243=VERTEX_POINT('',#541);
#244=VERTEX_POINT('',#544);
#245=VERTEX_POINT('',#547);
#246=VERTEX_POINT('',#550);
#247=VERTEX_POINT('',#553);
#248=VERTEX_POINT('',#556);
#249=VERTEX_POINT('',#559);
#250=VERTEX_POINT('',#562);
#251=VERTEX_POINT('',#565);
#252=VERTEX_POINT('',#568);
#253=VERTEX_POINT('',#571);
#254=VERTEX_POINT('',#574);
#255=VERTEX_POINT('',#577);
#256=VERTEX_POINT('',#580);
#257=VERTEX_POINT('',#583);
#258=VERTEX_POINT('',#586);
#259=VERTEX_POINT('',#589);
#260=VERTEX_POINT('',#592);
#261=VERTEX_POINT('',#595);
#262=EDGE_CURVE('',#237,#237,#287,.T.);
#263=EDGE_CURVE('',#238,#238,#288,.T.);
#264=EDGE_CURVE('',#239,#239,#289,.T.);
#265=EDGE_CURVE('',#240,#240,#290,.T.);
#266=EDGE_CURVE('',#241,#241,#291,.T.);
#267=EDGE_CURVE('',#242,#242,#292,.T.);
#268=EDGE_CURVE('',#243,#243,#293,.T.);
#269=EDGE_CURVE('',#244,#244,#294,.T.);
#270=EDGE_CURVE('',#245,#245,#295,.T.);
#271=EDGE_CURVE('',#246,#246,#296,.T.);
#272=EDGE_CURVE('',#247,#247,#297,.T.);
#273=EDGE_CURVE('',#248,#248,#298,.T.);
#274=EDGE_CURVE('',#249,#249,#299,.T.);
#275=EDGE_CURVE('',#250,#250,#300,.T.);
#276=EDGE_CURVE('',#251,#251,#301,.T.);
#277=EDGE_CURVE('',#252,#252,#302,.T.);
#278=EDGE_CURVE('',#253,#253,#303,.T.);
#279=EDGE_CURVE('',#254,#254,#304,.T.);
#280=EDGE_CURVE('',#255,#255,#305,.T.);
#281=EDGE_CURVE('',#256,#256,#306,.T.);
#282=EDGE_CURVE('',#257,#257,#307,.T.);
#283=EDGE_CURVE('',#258,#258,#308,.T.);
#284=EDGE_CURVE('',#259,#259,#309,.T.);
#285=EDGE_CURVE('',#260,#260,#310,.T.);
#286=EDGE_CURVE('',#261,#261,#311,.T.);
#287=CIRCLE('',#351,12.6874125357568);
#288=CIRCLE('',#353,22.225);
#289=CIRCLE('',#355,21.925);
#290=CIRCLE('',#357,21.925);
#291=CIRCLE('',#359,22.425);
#292=CIRCLE('',#361,23.8803847577293);
#293=CIRCLE('',#363,25.);
#294=CIRCLE('',#365,31.4885);
#295=CIRCLE('',#367,31.4885);
#296=CIRCLE('',#369,27.117867131588);
#297=CIRCLE('',#371,26.5);
#298=CIRCLE('',#373,26.5);
#299=CIRCLE('',#375,27.117867131588);
#300=CIRCLE('',#377,31.4885);
#301=CIRCLE('',#379,31.4885);
#302=CIRCLE('',#381,25.);
#303=CIRCLE('',#383,25.);
#304=CIRCLE('',#385,23.75);
#305=CIRCLE('',#387,23.75);
#306=CIRCLE('',#389,25.);
#307=CIRCLE('',#391,25.);
#308=CIRCLE('',#393,30.5);
#309=CIRCLE('',#395,31.5);
#310=CIRCLE('',#397,31.5);
#311=CIRCLE('',#399,26.3038475772934);
#312=CURVE_STYLE('',#316,POSITIVE_LENGTH_MEASURE(0.13),#343);
#313=CURVE_STYLE('',#317,POSITIVE_LENGTH_MEASURE(0.18),#343);
#314=CURVE_STYLE('',#318,POSITIVE_LENGTH_MEASURE(0.18),#343);
#315=CURVE_STYLE('',#319,POSITIVE_LENGTH_MEASURE(0.18),#344);
#316=DRAUGHTING_PRE_DEFINED_CURVE_FONT('continuous');
#317=DRAUGHTING_PRE_DEFINED_CURVE_FONT('continuous');
#318=DRAUGHTING_PRE_DEFINED_CURVE_FONT('continuous');
#319=DRAUGHTING_PRE_DEFINED_CURVE_FONT('continuous');
#320=PRESENTATION_LAYER_ASSIGNMENT('1','Layer 1',(#515,#516,#517,#347,#348,
#349,#350,#33));
#321=STYLED_ITEM('',(#329),#515);
#322=STYLED_ITEM('',(#330),#516);
#323=STYLED_ITEM('',(#331),#517);
#324=STYLED_ITEM('',(#332),#347);
#325=STYLED_ITEM('',(#333),#348);
#326=STYLED_ITEM('',(#334),#349);
#327=STYLED_ITEM('',(#335),#350);
#328=STYLED_ITEM('',(#336),#33);
#329=PRESENTATION_STYLE_ASSIGNMENT((#337));
#330=PRESENTATION_STYLE_ASSIGNMENT((#338));
#331=PRESENTATION_STYLE_ASSIGNMENT((#339));
#332=PRESENTATION_STYLE_ASSIGNMENT((#312));
#333=PRESENTATION_STYLE_ASSIGNMENT((#313));
#334=PRESENTATION_STYLE_ASSIGNMENT((#314));
#335=PRESENTATION_STYLE_ASSIGNMENT((#315));
#336=PRESENTATION_STYLE_ASSIGNMENT((#28));
#337=POINT_STYLE('',#340,POSITIVE_LENGTH_MEASURE(3.),#343);
#338=POINT_STYLE('',#341,POSITIVE_LENGTH_MEASURE(3.),#343);
#339=POINT_STYLE('',#342,POSITIVE_LENGTH_MEASURE(3.),#344);
#340=PRE_DEFINED_POINT_MARKER_SYMBOL('plus');
#341=PRE_DEFINED_POINT_MARKER_SYMBOL('plus');
#342=PRE_DEFINED_POINT_MARKER_SYMBOL('plus');
#343=COLOUR_RGB('Strong Stone',0.576470588235294,0.54508278019379,0.392156862745098);
#344=COLOUR_RGB('Medium Maroon',0.6,0.4,0.4);
#345=COLOUR_RGB('TLS_NOCUT',0.499992370489052,0.499992370489052,0.499992370489052);
#346=AXIS2_PLACEMENT_3D('',#514,#402,#403);
#347=AXIS2_PLACEMENT_3D('',#518,#404,#405);
#348=AXIS2_PLACEMENT_3D('PCS',#519,#406,#407);
#349=AXIS2_PLACEMENT_3D('MCS',#520,#408,#409);
#350=AXIS2_PLACEMENT_3D('CSW',#521,#410,#411);
#351=AXIS2_PLACEMENT_3D('',#522,#412,#413);
#352=AXIS2_PLACEMENT_3D('',#524,#414,#415);
#353=AXIS2_PLACEMENT_3D('',#525,#416,#417);
#354=AXIS2_PLACEMENT_3D('',#527,#418,#419);
#355=AXIS2_PLACEMENT_3D('',#528,#420,#421);
#356=AXIS2_PLACEMENT_3D('',#530,#422,#423);
#357=AXIS2_PLACEMENT_3D('',#531,#424,#425);
#358=AXIS2_PLACEMENT_3D('',#533,#426,#427);
#359=AXIS2_PLACEMENT_3D('',#534,#428,#429);
#360=AXIS2_PLACEMENT_3D('',#536,#430,#431);
#361=AXIS2_PLACEMENT_3D('',#537,#432,#433);
#362=AXIS2_PLACEMENT_3D('',#539,#434,#435);
#363=AXIS2_PLACEMENT_3D('',#540,#436,#437);
#364=AXIS2_PLACEMENT_3D('',#542,#438,#439);
#365=AXIS2_PLACEMENT_3D('',#543,#440,#441);
#366=AXIS2_PLACEMENT_3D('',#545,#442,#443);
#367=AXIS2_PLACEMENT_3D('',#546,#444,#445);
#368=AXIS2_PLACEMENT_3D('',#548,#446,#447);
#369=AXIS2_PLACEMENT_3D('',#549,#448,#449);
#370=AXIS2_PLACEMENT_3D('',#551,#450,#451);
#371=AXIS2_PLACEMENT_3D('',#552,#452,#453);
#372=AXIS2_PLACEMENT_3D('',#554,#454,#455);
#373=AXIS2_PLACEMENT_3D('',#555,#456,#457);
#374=AXIS2_PLACEMENT_3D('',#557,#458,#459);
#375=AXIS2_PLACEMENT_3D('',#558,#460,#461);
#376=AXIS2_PLACEMENT_3D('',#560,#462,#463);
#377=AXIS2_PLACEMENT_3D('',#561,#464,#465);
#378=AXIS2_PLACEMENT_3D('',#563,#466,#467);
#379=AXIS2_PLACEMENT_3D('',#564,#468,#469);
#380=AXIS2_PLACEMENT_3D('',#566,#470,#471);
#381=AXIS2_PLACEMENT_3D('',#567,#472,#473);
#382=AXIS2_PLACEMENT_3D('',#569,#474,#475);
#383=AXIS2_PLACEMENT_3D('',#570,#476,#477);
#384=AXIS2_PLACEMENT_3D('',#572,#478,#479);
#385=AXIS2_PLACEMENT_3D('',#573,#480,#481);
#386=AXIS2_PLACEMENT_3D('',#575,#482,#483);
#387=AXIS2_PLACEMENT_3D('',#576,#484,#485);
#388=AXIS2_PLACEMENT_3D('',#578,#486,#487);
#389=AXIS2_PLACEMENT_3D('',#579,#488,#489);
#390=AXIS2_PLACEMENT_3D('',#581,#490,#491);
#391=AXIS2_PLACEMENT_3D('',#582,#492,#493);
#392=AXIS2_PLACEMENT_3D('',#584,#494,#495);
#393=AXIS2_PLACEMENT_3D('',#585,#496,#497);
#394=AXIS2_PLACEMENT_3D('',#587,#498,#499);
#395=AXIS2_PLACEMENT_3D('',#588,#500,#501);
#396=AXIS2_PLACEMENT_3D('',#590,#502,#503);
#397=AXIS2_PLACEMENT_3D('',#591,#504,#505);
#398=AXIS2_PLACEMENT_3D('',#593,#506,#507);
#399=AXIS2_PLACEMENT_3D('',#594,#508,#509);
#400=AXIS2_PLACEMENT_3D('',#596,#510,#511);
#401=AXIS2_PLACEMENT_3D('',#597,#512,#513);
#402=DIRECTION('',(0.,0.,1.));
#403=DIRECTION('',(1.,0.,0.));
#404=DIRECTION('',(0.,0.,1.));
#405=DIRECTION('',(1.,0.,0.));
#406=DIRECTION('',(0.,0.,1.));
#407=DIRECTION('',(1.,0.,0.));
#408=DIRECTION('',(0.,0.,1.));
#409=DIRECTION('',(1.,0.,0.));
#410=DIRECTION('',(0.,0.,1.));
#411=DIRECTION('',(1.,0.,0.));
#412=DIRECTION('',(0.,0.,1.));
#413=DIRECTION('',(1.,0.,0.));
#414=DIRECTION('',(0.,0.,1.));
#415=DIRECTION('',(-1.,0.,0.));
#416=DIRECTION('',(0.,0.,1.));
#417=DIRECTION('',(1.,0.,0.));
#418=DIRECTION('',(0.,0.,-1.));
#419=DIRECTION('',(1.,0.,0.));
#420=DIRECTION('',(0.,0.,1.));
#421=DIRECTION('',(1.,0.,0.));
#422=DIRECTION('',(0.,0.,1.));
#423=DIRECTION('',(-1.,0.,1.92098044783594E-017));
#424=DIRECTION('',(0.,0.,1.));
#425=DIRECTION('',(1.,0.,0.));
#426=DIRECTION('',(0.,0.,1.));
#427=DIRECTION('',(-1.,0.,0.));
#428=DIRECTION('',(0.,0.,1.));
#429=DIRECTION('',(1.,0.,0.));
#430=DIRECTION('',(0.,0.,1.));
#431=DIRECTION('',(-1.,0.,0.));
#432=DIRECTION('',(0.,0.,1.));
#433=DIRECTION('',(1.,0.,0.));
#434=DIRECTION('',(0.,0.,1.));
#435=DIRECTION('',(-1.,0.,0.));
#436=DIRECTION('',(0.,0.,1.));
#437=DIRECTION('',(1.,0.,0.));
#438=DIRECTION('',(0.,0.,1.));
#439=DIRECTION('',(-1.,0.,8.60218760292372E-018));
#440=DIRECTION('',(0.,0.,1.));
#441=DIRECTION('',(1.,0.,0.));
#442=DIRECTION('',(0.,0.,1.));
#443=DIRECTION('',(-1.,0.,0.));
#444=DIRECTION('',(0.,0.,1.));
#445=DIRECTION('',(1.,0.,0.));
#446=DIRECTION('',(0.,0.,1.));
#447=DIRECTION('',(-1.,0.,0.));
#448=DIRECTION('',(0.,0.,1.));
#449=DIRECTION('',(1.,0.,0.));
#450=DIRECTION('',(0.,0.,1.));
#451=DIRECTION('',(-1.,0.,1.85971694204168E-017));
#452=DIRECTION('',(0.,0.,1.));
#453=DIRECTION('',(1.,0.,0.));
#454=DIRECTION('',(0.,0.,-1.));
#455=DIRECTION('',(1.,0.,0.));
#456=DIRECTION('',(0.,0.,1.));
#457=DIRECTION('',(1.,0.,0.));
#458=DIRECTION('',(0.,0.,1.));
#459=DIRECTION('',(-1.,0.,0.));
#460=DIRECTION('',(0.,0.,1.));
#461=DIRECTION('',(1.,0.,0.));
#462=DIRECTION('',(0.,0.,1.));
#463=DIRECTION('',(-1.,0.,0.));
#464=DIRECTION('',(0.,0.,1.));
#465=DIRECTION('',(1.,0.,0.));
#466=DIRECTION('',(0.,0.,-1.));
#467=DIRECTION('',(1.,0.,6.08355255410928E-017));
#468=DIRECTION('',(0.,0.,1.));
#469=DIRECTION('',(1.,0.,0.));
#470=DIRECTION('',(0.,0.,1.));
#471=DIRECTION('',(-1.,0.,0.));
#472=DIRECTION('',(0.,0.,1.));
#473=DIRECTION('',(1.,0.,0.));
#474=DIRECTION('',(0.,0.,-1.));
#475=DIRECTION('',(1.,0.,0.));
#476=DIRECTION('',(0.,0.,1.));
#477=DIRECTION('',(1.,0.,0.));
#478=DIRECTION('',(0.,0.,1.));
#479=DIRECTION('',(-1.,0.,0.));
#480=DIRECTION('',(0.,0.,1.));
#481=DIRECTION('',(1.,0.,0.));
#482=DIRECTION('',(0.,0.,1.));
#483=DIRECTION('',(-1.,0.,4.60787967322898E-017));
#484=DIRECTION('',(0.,0.,1.));
#485=DIRECTION('',(-1.,0.,0.));
#486=DIRECTION('',(0.,0.,1.));
#487=DIRECTION('',(-1.,0.,0.));
#488=DIRECTION('',(0.,0.,1.));
#489=DIRECTION('',(1.,0.,0.));
#490=DIRECTION('',(0.,0.,-1.));
#491=DIRECTION('',(1.,0.,-5.77174380612002E-017));
#492=DIRECTION('',(0.,0.,1.));
#493=DIRECTION('',(1.,0.,0.));
#494=DIRECTION('',(0.,0.,1.));
#495=DIRECTION('',(-1.,0.,0.));
#496=DIRECTION('',(0.,0.,1.));
#497=DIRECTION('',(1.,0.,0.));
#498=DIRECTION('',(0.,0.,1.));
#499=DIRECTION('',(-1.,0.,0.));
#500=DIRECTION('',(0.,0.,1.));
#501=DIRECTION('',(1.,0.,0.));
#502=DIRECTION('',(0.,0.,1.));
#503=DIRECTION('',(-1.,0.,0.));
#504=DIRECTION('',(0.,0.,1.));
#505=DIRECTION('',(1.,0.,0.));
#506=DIRECTION('',(0.,0.,1.));
#507=DIRECTION('',(-1.,0.,0.));
#508=DIRECTION('',(0.,0.,1.));
#509=DIRECTION('',(1.,0.,0.));
#510=DIRECTION('',(0.,0.,1.));
#511=DIRECTION('',(-1.,0.,3.14769220104195E-017));
#512=DIRECTION('',(0.,0.,-1.));
#513=DIRECTION('',(1.,0.,0.));
#514=CARTESIAN_POINT('',(0.,0.,0.));
#515=CARTESIAN_POINT('',(0.,0.,0.));
#516=CARTESIAN_POINT('',(0.,0.,0.));
#517=CARTESIAN_POINT('',(0.,0.,-55.));
#518=CARTESIAN_POINT('',(0.,0.,0.));
#519=CARTESIAN_POINT('',(0.,0.,0.));
#520=CARTESIAN_POINT('',(0.,0.,0.));
#521=CARTESIAN_POINT('',(0.,0.,-55.));
#522=CARTESIAN_POINT('',(0.,0.,65.4));
#523=CARTESIAN_POINT('',(12.6874125357568,0.,65.4));
#524=CARTESIAN_POINT('',(0.,8.50675,65.4));
#525=CARTESIAN_POINT('',(0.,0.,-1.38777878078145E-014));
#526=CARTESIAN_POINT('',(22.225,0.,-1.38777878078145E-014));
#527=CARTESIAN_POINT('',(0.,0.,65.4));
#528=CARTESIAN_POINT('',(0.,0.,-0.428444402022637));
#529=CARTESIAN_POINT('',(21.925,0.,-0.428444402022637));
#530=CARTESIAN_POINT('',(0.,0.,-1.38777878078145E-014));
#531=CARTESIAN_POINT('',(0.,0.,-0.799999999999995));
#532=CARTESIAN_POINT('',(21.925,0.,-0.799999999999995));
#533=CARTESIAN_POINT('',(0.,0.,-70.));
#534=CARTESIAN_POINT('',(0.,0.,-1.29999999999998));
#535=CARTESIAN_POINT('',(22.425,0.,-1.29999999999998));
#536=CARTESIAN_POINT('',(0.,0.,-0.799999999999988));
#537=CARTESIAN_POINT('',(0.,0.,-1.3));
#538=CARTESIAN_POINT('',(23.8803847577293,0.,-1.3));
#539=CARTESIAN_POINT('',(0.,22.425,-1.29999999999999));
#540=CARTESIAN_POINT('',(0.,0.,-1.));
#541=CARTESIAN_POINT('',(25.,0.,-1.));
#542=CARTESIAN_POINT('',(0.,0.,-1.3));
#543=CARTESIAN_POINT('',(0.,0.,-1.));
#544=CARTESIAN_POINT('',(31.4885,0.,-1.));
#545=CARTESIAN_POINT('',(0.,25.,-0.999999999999997));
#546=CARTESIAN_POINT('',(0.,0.,-11.589311618914));
#547=CARTESIAN_POINT('',(31.4885,0.,-11.589311618914));
#548=CARTESIAN_POINT('',(0.,0.,-70.));
#549=CARTESIAN_POINT('',(0.,0.,-14.1));
#550=CARTESIAN_POINT('',(27.117867131588,0.,-14.1));
#551=CARTESIAN_POINT('',(0.,0.,-11.589311618914));
#552=CARTESIAN_POINT('',(0.,0.,-14.1));
#553=CARTESIAN_POINT('',(26.5,0.,-14.1));
#554=CARTESIAN_POINT('',(0.,27.117867131588,-14.1));
#555=CARTESIAN_POINT('',(0.,0.,-19.1));
#556=CARTESIAN_POINT('',(26.5,0.,-19.1));
#557=CARTESIAN_POINT('',(0.,0.,-70.));
#558=CARTESIAN_POINT('',(0.,0.,-19.1));
#559=CARTESIAN_POINT('',(27.117867131588,0.,-19.1));
#560=CARTESIAN_POINT('',(0.,26.5,-19.1));
#561=CARTESIAN_POINT('',(0.,0.,-21.610688381086));
#562=CARTESIAN_POINT('',(31.4885,0.,-21.610688381086));
#563=CARTESIAN_POINT('',(0.,0.,-19.1));
#564=CARTESIAN_POINT('',(0.,0.,-27.));
#565=CARTESIAN_POINT('',(31.4885,0.,-27.));
#566=CARTESIAN_POINT('',(0.,0.,-70.));
#567=CARTESIAN_POINT('',(0.,0.,-27.));
#568=CARTESIAN_POINT('',(25.,0.,-27.));
#569=CARTESIAN_POINT('',(0.,31.4885,-27.));
#570=CARTESIAN_POINT('',(0.,0.,-32.45));
#571=CARTESIAN_POINT('',(25.,0.,-32.45));
#572=CARTESIAN_POINT('',(0.,0.,-70.));
#573=CARTESIAN_POINT('',(0.,0.,-34.6150635094611));
#574=CARTESIAN_POINT('',(1.45426807398748E-015,23.75,-34.6150635094611));
#575=CARTESIAN_POINT('',(0.,0.,-32.45));
#576=CARTESIAN_POINT('',(0.,0.,-37.9849364905389));
#577=CARTESIAN_POINT('',(-2.90933480100425E-015,23.75,-37.9849364905389));
#578=CARTESIAN_POINT('',(0.,0.,-70.));
#579=CARTESIAN_POINT('',(0.,0.,-40.15));
#580=CARTESIAN_POINT('',(25.,0.,-40.15));
#581=CARTESIAN_POINT('',(0.,0.,-38.));
#582=CARTESIAN_POINT('',(0.,0.,-44.5));
#583=CARTESIAN_POINT('',(25.,0.,-44.5));
#584=CARTESIAN_POINT('',(0.,0.,-70.));
#585=CARTESIAN_POINT('',(0.,0.,-44.5));
#586=CARTESIAN_POINT('',(30.5,0.,-44.5));
#587=CARTESIAN_POINT('',(0.,25.,-44.5));
#588=CARTESIAN_POINT('',(0.,0.,-45.5));
#589=CARTESIAN_POINT('',(31.5,0.,-45.5));
#590=CARTESIAN_POINT('',(0.,0.,-45.5));
#591=CARTESIAN_POINT('',(0.,0.,-67.));
#592=CARTESIAN_POINT('',(31.5,0.,-67.));
#593=CARTESIAN_POINT('',(0.,0.,-70.));
#594=CARTESIAN_POINT('',(0.,0.,-70.));
#595=CARTESIAN_POINT('',(26.3038475772934,0.,-70.));
#596=CARTESIAN_POINT('',(0.,0.,-67.));
#597=CARTESIAN_POINT('',(0.,16.6853430349158,-70.));
#598=MECHANICAL_DESIGN_GEOMETRIC_PRESENTATION_REPRESENTATION('',(#321,#322,
#323,#324,#325,#326,#327,#328),#599);
#599=(
GEOMETRIC_REPRESENTATION_CONTEXT(3)
GLOBAL_UNCERTAINTY_ASSIGNED_CONTEXT((#600))
GLOBAL_UNIT_ASSIGNED_CONTEXT((#606,#602,#601))
REPRESENTATION_CONTEXT('1493025760523','TOP_LEVEL_ASSEMBLY_PART')
);
#600=UNCERTAINTY_MEASURE_WITH_UNIT(LENGTH_MEASURE(2.E-005),#606,
'DISTANCE_ACCURACY_VALUE','Maximum Tolerance applied to model');
#601=(
NAMED_UNIT(*)
SI_UNIT($,.STERADIAN.)
SOLID_ANGLE_UNIT()
);
#602=(
CONVERSION_BASED_UNIT('DEGREE',#604)
NAMED_UNIT(#603)
PLANE_ANGLE_UNIT()
);
#603=DIMENSIONAL_EXPONENTS(0.,0.,0.,0.,0.,0.,0.);
#604=PLANE_ANGLE_MEASURE_WITH_UNIT(PLANE_ANGLE_MEASURE(0.0174532925),#605);
#605=(
NAMED_UNIT(*)
PLANE_ANGLE_UNIT()
SI_UNIT($,.RADIAN.)
);
#606=(
LENGTH_UNIT()
NAMED_UNIT(*)
SI_UNIT(.MILLI.,.METRE.)
);
ENDSEC;
END-ISO-10303-21;
