ISO-10303-21;
HEADER;
FILE_DESCRIPTION(
/* description */ ('3-D model version:1'),
/* implementation_level */ '2;1');
FILE_NAME(
/* name */ '392.55505C3022040',
/* time_stamp */ '2016-12-02T14:00:25',
/* author */ ('InteractiveCad'),
/* organization */ ('AB Sandvik Coromant'),
/* preprocessor_version */ 'ST-DEVELOPER v11',
/* originating_system */ 'SIEMENS UGS NX 6.0',
/* authorization */ '');
FILE_SCHEMA(('AUTOMOTIVE_DESIGN'));
ENDSEC;
DATA;
#10=SHAPE_REPRESENTATION_RELATIONSHIP('None','relationship between 392.55505C3022040_635397133880416994_1_stp-None a\X\0Dnd 392.55505C3022040_635397133880416994_1_stp-None',
     #22,#11);
#11=ADVANCED_BREP_SHAPE_REPRESENTATION('392.55505C3022040_635397133880416994_1_stp-None',
     (#32),#625);
#12=SHAPE_DEFINITION_REPRESENTATION(#13,#22);
#13=PRODUCT_DEFINITION_SHAPE('','',#14);
#14=PRODUCT_DEFINITION(' ','',#16,#15);
#15=PRODUCT_DEFINITION_CONTEXT('part definition',#21,'design');
#16=PRODUCT_DEFINITION_FORMATION_WITH_SPECIFIED_SOURCE(' ',' ',#18,.NOT_KNOWN.);
#17=PRODUCT_RELATED_PRODUCT_CATEGORY('part','',(#18));
#18=PRODUCT('392.55505C3022040_635397133880416994_1_stp','392.55505C3022040_635397133880416994_1_stp',
     ' ',(#19));
#19=PRODUCT_CONTEXT(' ',#21,'mechanical');
#20=APPLICATION_PROTOCOL_DEFINITION('international standard','automotive_design',
     2001,#21);
#21=APPLICATION_CONTEXT('core data for automotive mechanical design processes');
#22=SHAPE_REPRESENTATION('392.55505C3022040_635397133880416994_1_stp-None',(#355),
     #625);
#23=PRESENTATION_LAYER_ASSIGNMENT('1','Layer 1',(#32));
#24=STYLED_ITEM('',(#25),#32);
#25=PRESENTATION_STYLE_ASSIGNMENT((#26));
#26=SURFACE_STYLE_USAGE(.BOTH.,#27);
#27=SURFACE_SIDE_STYLE('',(#28));
#28=SURFACE_STYLE_FILL_AREA(#29);
#29=FILL_AREA_STYLE('',(#30));
#30=FILL_AREA_STYLE_COLOUR('',#31);
#31=COLOUR_RGB('TLS_NOCUT',0.499992370489052,0.499992370489052,0.499992370489052);
#32=MANIFOLD_SOLID_BREP('NOCUT',#33);
#33=CLOSED_SHELL('',(#108,#109,#110,#111,#112,#113,#114,#115,#116,#117,#118,#119,
     #120,#121,#122,#123,#124,#125,#126,#127,#128,#129,#130,#131,#132,#133,#134,
     #135,#136,#137));
#34=CYLINDRICAL_SURFACE('',#367,15.575);
#35=CYLINDRICAL_SURFACE('',#371,22.99025);
#36=CYLINDRICAL_SURFACE('',#377,19.0);
#37=CYLINDRICAL_SURFACE('',#383,22.9902500000001);
#38=CYLINDRICAL_SURFACE('',#387,22.5);
#39=CYLINDRICAL_SURFACE('',#391,24.0);
#40=CYLINDRICAL_SURFACE('',#395,11.0);
#41=CYLINDRICAL_SURFACE('',#399,5.0);
#42=CYLINDRICAL_SURFACE('',#403,5.5);
#43=CYLINDRICAL_SURFACE('',#407,14.0);
#44=CYLINDRICAL_SURFACE('',#413,7.99999999999999);
#45=CONICAL_SURFACE('',#363,8.87840012107731,8.2979166666667);
#46=CONICAL_SURFACE('',#365,15.875,35.0000000000005);
#47=CONICAL_SURFACE('',#373,22.99025,60.1250000000001);
#48=CONICAL_SURFACE('',#381,19.480757323931,60.125000000001);
#49=CONICAL_SURFACE('',#409,14.0,44.9999999999998);
#50=TOROIDAL_SURFACE('',#361,8.3836346024001,0.5);
#51=TOROIDAL_SURFACE('',#414,6.99999999999999,1.0);
#52=FACE_BOUND('',#154,.T.);
#53=FACE_BOUND('',#155,.T.);
#54=FACE_BOUND('',#156,.T.);
#55=FACE_BOUND('',#157,.T.);
#56=FACE_BOUND('',#158,.T.);
#57=FACE_BOUND('',#159,.T.);
#58=FACE_BOUND('',#160,.T.);
#59=FACE_BOUND('',#161,.T.);
#60=FACE_BOUND('',#162,.T.);
#61=FACE_BOUND('',#163,.T.);
#62=FACE_BOUND('',#164,.T.);
#63=FACE_BOUND('',#165,.T.);
#64=FACE_BOUND('',#166,.T.);
#65=FACE_BOUND('',#167,.T.);
#66=FACE_BOUND('',#168,.T.);
#67=FACE_BOUND('',#169,.T.);
#68=FACE_BOUND('',#170,.T.);
#69=FACE_BOUND('',#171,.T.);
#70=FACE_BOUND('',#172,.T.);
#71=FACE_BOUND('',#173,.T.);
#72=FACE_BOUND('',#174,.T.);
#73=FACE_BOUND('',#175,.T.);
#74=FACE_BOUND('',#176,.T.);
#75=FACE_BOUND('',#177,.T.);
#76=FACE_BOUND('',#178,.T.);
#77=FACE_BOUND('',#179,.T.);
#78=FACE_BOUND('',#180,.T.);
#79=FACE_BOUND('',#181,.T.);
#80=FACE_BOUND('',#182,.T.);
#81=FACE_BOUND('',#183,.T.);
#82=FACE_BOUND('',#184,.T.);
#83=FACE_BOUND('',#185,.T.);
#84=FACE_BOUND('',#186,.T.);
#85=FACE_BOUND('',#187,.T.);
#86=FACE_BOUND('',#188,.T.);
#87=FACE_BOUND('',#189,.T.);
#88=FACE_BOUND('',#190,.T.);
#89=FACE_BOUND('',#191,.T.);
#90=FACE_BOUND('',#192,.T.);
#91=FACE_BOUND('',#193,.T.);
#92=FACE_BOUND('',#194,.T.);
#93=FACE_BOUND('',#195,.T.);
#94=FACE_BOUND('',#196,.T.);
#95=FACE_BOUND('',#197,.T.);
#96=FACE_BOUND('',#198,.T.);
#97=FACE_BOUND('',#199,.T.);
#98=FACE_BOUND('',#200,.T.);
#99=FACE_BOUND('',#201,.T.);
#100=FACE_BOUND('',#202,.T.);
#101=FACE_BOUND('',#203,.T.);
#102=FACE_BOUND('',#204,.T.);
#103=FACE_BOUND('',#205,.T.);
#104=FACE_BOUND('',#206,.T.);
#105=FACE_BOUND('',#207,.T.);
#106=FACE_BOUND('',#208,.T.);
#107=FACE_BOUND('',#209,.T.);
#108=ADVANCED_FACE('',(#150),#138,.T.);
#109=ADVANCED_FACE('',(#151),#139,.T.);
#110=ADVANCED_FACE('',(#52,#53),#50,.T.);
#111=ADVANCED_FACE('',(#54,#55),#45,.T.);
#112=ADVANCED_FACE('',(#56,#57),#46,.T.);
#113=ADVANCED_FACE('',(#58,#59),#34,.T.);
#114=ADVANCED_FACE('',(#60,#61),#140,.T.);
#115=ADVANCED_FACE('',(#62,#63),#35,.T.);
#116=ADVANCED_FACE('',(#64,#65),#47,.T.);
#117=ADVANCED_FACE('',(#66,#67),#141,.T.);
#118=ADVANCED_FACE('',(#68,#69),#36,.T.);
#119=ADVANCED_FACE('',(#70,#71),#142,.T.);
#120=ADVANCED_FACE('',(#72,#73),#48,.T.);
#121=ADVANCED_FACE('',(#74,#75),#37,.T.);
#122=ADVANCED_FACE('',(#76,#77),#143,.T.);
#123=ADVANCED_FACE('',(#78,#79),#38,.T.);
#124=ADVANCED_FACE('',(#80,#81),#144,.T.);
#125=ADVANCED_FACE('',(#82,#83),#39,.T.);
#126=ADVANCED_FACE('',(#84,#85),#145,.T.);
#127=ADVANCED_FACE('',(#86,#87),#40,.T.);
#128=ADVANCED_FACE('',(#88,#89),#146,.T.);
#129=ADVANCED_FACE('',(#90,#91),#41,.T.);
#130=ADVANCED_FACE('',(#92,#93),#147,.T.);
#131=ADVANCED_FACE('',(#94,#95),#42,.F.);
#132=ADVANCED_FACE('',(#96,#97),#148,.T.);
#133=ADVANCED_FACE('',(#98,#99),#43,.T.);
#134=ADVANCED_FACE('',(#100,#101),#49,.T.);
#135=ADVANCED_FACE('',(#102,#103),#149,.T.);
#136=ADVANCED_FACE('',(#104,#105),#44,.T.);
#137=ADVANCED_FACE('',(#106,#107),#51,.T.);
#138=PLANE('',#357);
#139=PLANE('',#359);
#140=PLANE('',#369);
#141=PLANE('',#375);
#142=PLANE('',#379);
#143=PLANE('',#385);
#144=PLANE('',#389);
#145=PLANE('',#393);
#146=PLANE('',#397);
#147=PLANE('',#401);
#148=PLANE('',#405);
#149=PLANE('',#411);
#150=FACE_OUTER_BOUND('',#152,.T.);
#151=FACE_OUTER_BOUND('',#153,.T.);
#152=EDGE_LOOP('',(#210));
#153=EDGE_LOOP('',(#211));
#154=EDGE_LOOP('',(#212));
#155=EDGE_LOOP('',(#213));
#156=EDGE_LOOP('',(#214));
#157=EDGE_LOOP('',(#215));
#158=EDGE_LOOP('',(#216));
#159=EDGE_LOOP('',(#217));
#160=EDGE_LOOP('',(#218));
#161=EDGE_LOOP('',(#219));
#162=EDGE_LOOP('',(#220));
#163=EDGE_LOOP('',(#221));
#164=EDGE_LOOP('',(#222));
#165=EDGE_LOOP('',(#223));
#166=EDGE_LOOP('',(#224));
#167=EDGE_LOOP('',(#225));
#168=EDGE_LOOP('',(#226));
#169=EDGE_LOOP('',(#227));
#170=EDGE_LOOP('',(#228));
#171=EDGE_LOOP('',(#229));
#172=EDGE_LOOP('',(#230));
#173=EDGE_LOOP('',(#231));
#174=EDGE_LOOP('',(#232));
#175=EDGE_LOOP('',(#233));
#176=EDGE_LOOP('',(#234));
#177=EDGE_LOOP('',(#235));
#178=EDGE_LOOP('',(#236));
#179=EDGE_LOOP('',(#237));
#180=EDGE_LOOP('',(#238));
#181=EDGE_LOOP('',(#239));
#182=EDGE_LOOP('',(#240));
#183=EDGE_LOOP('',(#241));
#184=EDGE_LOOP('',(#242));
#185=EDGE_LOOP('',(#243));
#186=EDGE_LOOP('',(#244));
#187=EDGE_LOOP('',(#245));
#188=EDGE_LOOP('',(#246));
#189=EDGE_LOOP('',(#247));
#190=EDGE_LOOP('',(#248));
#191=EDGE_LOOP('',(#249));
#192=EDGE_LOOP('',(#250));
#193=EDGE_LOOP('',(#251));
#194=EDGE_LOOP('',(#252));
#195=EDGE_LOOP('',(#253));
#196=EDGE_LOOP('',(#254));
#197=EDGE_LOOP('',(#255));
#198=EDGE_LOOP('',(#256));
#199=EDGE_LOOP('',(#257));
#200=EDGE_LOOP('',(#258));
#201=EDGE_LOOP('',(#259));
#202=EDGE_LOOP('',(#260));
#203=EDGE_LOOP('',(#261));
#204=EDGE_LOOP('',(#262));
#205=EDGE_LOOP('',(#263));
#206=EDGE_LOOP('',(#264));
#207=EDGE_LOOP('',(#265));
#208=EDGE_LOOP('',(#266));
#209=EDGE_LOOP('',(#267));
#210=ORIENTED_EDGE('',*,*,#297,.F.);
#211=ORIENTED_EDGE('',*,*,#298,.T.);
#212=ORIENTED_EDGE('',*,*,#299,.T.);
#213=ORIENTED_EDGE('',*,*,#298,.F.);
#214=ORIENTED_EDGE('',*,*,#300,.T.);
#215=ORIENTED_EDGE('',*,*,#299,.F.);
#216=ORIENTED_EDGE('',*,*,#301,.T.);
#217=ORIENTED_EDGE('',*,*,#300,.F.);
#218=ORIENTED_EDGE('',*,*,#302,.T.);
#219=ORIENTED_EDGE('',*,*,#301,.F.);
#220=ORIENTED_EDGE('',*,*,#303,.T.);
#221=ORIENTED_EDGE('',*,*,#302,.F.);
#222=ORIENTED_EDGE('',*,*,#304,.T.);
#223=ORIENTED_EDGE('',*,*,#303,.F.);
#224=ORIENTED_EDGE('',*,*,#305,.T.);
#225=ORIENTED_EDGE('',*,*,#304,.F.);
#226=ORIENTED_EDGE('',*,*,#306,.T.);
#227=ORIENTED_EDGE('',*,*,#305,.F.);
#228=ORIENTED_EDGE('',*,*,#307,.T.);
#229=ORIENTED_EDGE('',*,*,#306,.F.);
#230=ORIENTED_EDGE('',*,*,#308,.T.);
#231=ORIENTED_EDGE('',*,*,#307,.F.);
#232=ORIENTED_EDGE('',*,*,#309,.T.);
#233=ORIENTED_EDGE('',*,*,#308,.F.);
#234=ORIENTED_EDGE('',*,*,#310,.T.);
#235=ORIENTED_EDGE('',*,*,#309,.F.);
#236=ORIENTED_EDGE('',*,*,#311,.T.);
#237=ORIENTED_EDGE('',*,*,#310,.F.);
#238=ORIENTED_EDGE('',*,*,#312,.T.);
#239=ORIENTED_EDGE('',*,*,#311,.F.);
#240=ORIENTED_EDGE('',*,*,#313,.T.);
#241=ORIENTED_EDGE('',*,*,#312,.F.);
#242=ORIENTED_EDGE('',*,*,#314,.T.);
#243=ORIENTED_EDGE('',*,*,#313,.F.);
#244=ORIENTED_EDGE('',*,*,#315,.T.);
#245=ORIENTED_EDGE('',*,*,#314,.F.);
#246=ORIENTED_EDGE('',*,*,#316,.T.);
#247=ORIENTED_EDGE('',*,*,#315,.F.);
#248=ORIENTED_EDGE('',*,*,#317,.T.);
#249=ORIENTED_EDGE('',*,*,#316,.F.);
#250=ORIENTED_EDGE('',*,*,#318,.T.);
#251=ORIENTED_EDGE('',*,*,#317,.F.);
#252=ORIENTED_EDGE('',*,*,#319,.T.);
#253=ORIENTED_EDGE('',*,*,#318,.F.);
#254=ORIENTED_EDGE('',*,*,#320,.T.);
#255=ORIENTED_EDGE('',*,*,#319,.F.);
#256=ORIENTED_EDGE('',*,*,#321,.T.);
#257=ORIENTED_EDGE('',*,*,#320,.F.);
#258=ORIENTED_EDGE('',*,*,#322,.T.);
#259=ORIENTED_EDGE('',*,*,#321,.F.);
#260=ORIENTED_EDGE('',*,*,#323,.T.);
#261=ORIENTED_EDGE('',*,*,#322,.F.);
#262=ORIENTED_EDGE('',*,*,#324,.T.);
#263=ORIENTED_EDGE('',*,*,#323,.F.);
#264=ORIENTED_EDGE('',*,*,#325,.T.);
#265=ORIENTED_EDGE('',*,*,#324,.F.);
#266=ORIENTED_EDGE('',*,*,#297,.T.);
#267=ORIENTED_EDGE('',*,*,#325,.F.);
#268=VERTEX_POINT('',#537);
#269=VERTEX_POINT('',#540);
#270=VERTEX_POINT('',#543);
#271=VERTEX_POINT('',#546);
#272=VERTEX_POINT('',#549);
#273=VERTEX_POINT('',#552);
#274=VERTEX_POINT('',#555);
#275=VERTEX_POINT('',#558);
#276=VERTEX_POINT('',#561);
#277=VERTEX_POINT('',#564);
#278=VERTEX_POINT('',#567);
#279=VERTEX_POINT('',#570);
#280=VERTEX_POINT('',#573);
#281=VERTEX_POINT('',#576);
#282=VERTEX_POINT('',#579);
#283=VERTEX_POINT('',#582);
#284=VERTEX_POINT('',#585);
#285=VERTEX_POINT('',#588);
#286=VERTEX_POINT('',#591);
#287=VERTEX_POINT('',#594);
#288=VERTEX_POINT('',#597);
#289=VERTEX_POINT('',#600);
#290=VERTEX_POINT('',#603);
#291=VERTEX_POINT('',#606);
#292=VERTEX_POINT('',#609);
#293=VERTEX_POINT('',#612);
#294=VERTEX_POINT('',#615);
#295=VERTEX_POINT('',#618);
#296=VERTEX_POINT('',#621);
#297=EDGE_CURVE('',#268,#268,#326,.T.);
#298=EDGE_CURVE('',#269,#269,#327,.T.);
#299=EDGE_CURVE('',#270,#270,#328,.T.);
#300=EDGE_CURVE('',#271,#271,#329,.T.);
#301=EDGE_CURVE('',#272,#272,#330,.T.);
#302=EDGE_CURVE('',#273,#273,#331,.T.);
#303=EDGE_CURVE('',#274,#274,#332,.T.);
#304=EDGE_CURVE('',#275,#275,#333,.T.);
#305=EDGE_CURVE('',#276,#276,#334,.T.);
#306=EDGE_CURVE('',#277,#277,#335,.T.);
#307=EDGE_CURVE('',#278,#278,#336,.T.);
#308=EDGE_CURVE('',#279,#279,#337,.T.);
#309=EDGE_CURVE('',#280,#280,#338,.T.);
#310=EDGE_CURVE('',#281,#281,#339,.T.);
#311=EDGE_CURVE('',#282,#282,#340,.T.);
#312=EDGE_CURVE('',#283,#283,#341,.T.);
#313=EDGE_CURVE('',#284,#284,#342,.T.);
#314=EDGE_CURVE('',#285,#285,#343,.T.);
#315=EDGE_CURVE('',#286,#286,#344,.T.);
#316=EDGE_CURVE('',#287,#287,#345,.T.);
#317=EDGE_CURVE('',#288,#288,#346,.T.);
#318=EDGE_CURVE('',#289,#289,#347,.T.);
#319=EDGE_CURVE('',#290,#290,#348,.T.);
#320=EDGE_CURVE('',#291,#291,#349,.T.);
#321=EDGE_CURVE('',#292,#292,#350,.T.);
#322=EDGE_CURVE('',#293,#293,#351,.T.);
#323=EDGE_CURVE('',#294,#294,#352,.T.);
#324=EDGE_CURVE('',#295,#295,#353,.T.);
#325=EDGE_CURVE('',#296,#296,#354,.T.);
#326=CIRCLE('',#356,6.99999999999999);
#327=CIRCLE('',#358,8.3836346024001);
#328=CIRCLE('',#360,8.87840012107731);
#329=CIRCLE('',#362,15.875);
#330=CIRCLE('',#364,15.575);
#331=CIRCLE('',#366,15.575);
#332=CIRCLE('',#368,22.99025);
#333=CIRCLE('',#370,22.99025);
#334=CIRCLE('',#372,19.480757323931);
#335=CIRCLE('',#374,19.0);
#336=CIRCLE('',#376,19.0);
#337=CIRCLE('',#378,19.480757323931);
#338=CIRCLE('',#380,22.9902500000002);
#339=CIRCLE('',#382,22.99025);
#340=CIRCLE('',#384,22.5);
#341=CIRCLE('',#386,22.5);
#342=CIRCLE('',#388,24.0);
#343=CIRCLE('',#390,24.0);
#344=CIRCLE('',#392,11.0);
#345=CIRCLE('',#394,11.0);
#346=CIRCLE('',#396,5.0);
#347=CIRCLE('',#398,5.0);
#348=CIRCLE('',#400,5.5);
#349=CIRCLE('',#402,5.5);
#350=CIRCLE('',#404,14.0);
#351=CIRCLE('',#406,14.0);
#352=CIRCLE('',#408,13.0);
#353=CIRCLE('',#410,8.0);
#354=CIRCLE('',#412,7.99999999999999);
#355=AXIS2_PLACEMENT_3D('',#535,#415,#416);
#356=AXIS2_PLACEMENT_3D('',#536,#417,#418);
#357=AXIS2_PLACEMENT_3D('',#538,#419,#420);
#358=AXIS2_PLACEMENT_3D('',#539,#421,#422);
#359=AXIS2_PLACEMENT_3D('',#541,#423,#424);
#360=AXIS2_PLACEMENT_3D('',#542,#425,#426);
#361=AXIS2_PLACEMENT_3D('',#544,#427,#428);
#362=AXIS2_PLACEMENT_3D('',#545,#429,#430);
#363=AXIS2_PLACEMENT_3D('',#547,#431,#432);
#364=AXIS2_PLACEMENT_3D('',#548,#433,#434);
#365=AXIS2_PLACEMENT_3D('',#550,#435,#436);
#366=AXIS2_PLACEMENT_3D('',#551,#437,#438);
#367=AXIS2_PLACEMENT_3D('',#553,#439,#440);
#368=AXIS2_PLACEMENT_3D('',#554,#441,#442);
#369=AXIS2_PLACEMENT_3D('',#556,#443,#444);
#370=AXIS2_PLACEMENT_3D('',#557,#445,#446);
#371=AXIS2_PLACEMENT_3D('',#559,#447,#448);
#372=AXIS2_PLACEMENT_3D('',#560,#449,#450);
#373=AXIS2_PLACEMENT_3D('',#562,#451,#452);
#374=AXIS2_PLACEMENT_3D('',#563,#453,#454);
#375=AXIS2_PLACEMENT_3D('',#565,#455,#456);
#376=AXIS2_PLACEMENT_3D('',#566,#457,#458);
#377=AXIS2_PLACEMENT_3D('',#568,#459,#460);
#378=AXIS2_PLACEMENT_3D('',#569,#461,#462);
#379=AXIS2_PLACEMENT_3D('',#571,#463,#464);
#380=AXIS2_PLACEMENT_3D('',#572,#465,#466);
#381=AXIS2_PLACEMENT_3D('',#574,#467,#468);
#382=AXIS2_PLACEMENT_3D('',#575,#469,#470);
#383=AXIS2_PLACEMENT_3D('',#577,#471,#472);
#384=AXIS2_PLACEMENT_3D('',#578,#473,#474);
#385=AXIS2_PLACEMENT_3D('',#580,#475,#476);
#386=AXIS2_PLACEMENT_3D('',#581,#477,#478);
#387=AXIS2_PLACEMENT_3D('',#583,#479,#480);
#388=AXIS2_PLACEMENT_3D('',#584,#481,#482);
#389=AXIS2_PLACEMENT_3D('',#586,#483,#484);
#390=AXIS2_PLACEMENT_3D('',#587,#485,#486);
#391=AXIS2_PLACEMENT_3D('',#589,#487,#488);
#392=AXIS2_PLACEMENT_3D('',#590,#489,#490);
#393=AXIS2_PLACEMENT_3D('',#592,#491,#492);
#394=AXIS2_PLACEMENT_3D('',#593,#493,#494);
#395=AXIS2_PLACEMENT_3D('',#595,#495,#496);
#396=AXIS2_PLACEMENT_3D('',#596,#497,#498);
#397=AXIS2_PLACEMENT_3D('',#598,#499,#500);
#398=AXIS2_PLACEMENT_3D('',#599,#501,#502);
#399=AXIS2_PLACEMENT_3D('',#601,#503,#504);
#400=AXIS2_PLACEMENT_3D('',#602,#505,#506);
#401=AXIS2_PLACEMENT_3D('',#604,#507,#508);
#402=AXIS2_PLACEMENT_3D('',#605,#509,#510);
#403=AXIS2_PLACEMENT_3D('',#607,#511,#512);
#404=AXIS2_PLACEMENT_3D('',#608,#513,#514);
#405=AXIS2_PLACEMENT_3D('',#610,#515,#516);
#406=AXIS2_PLACEMENT_3D('',#611,#517,#518);
#407=AXIS2_PLACEMENT_3D('',#613,#519,#520);
#408=AXIS2_PLACEMENT_3D('',#614,#521,#522);
#409=AXIS2_PLACEMENT_3D('',#616,#523,#524);
#410=AXIS2_PLACEMENT_3D('',#617,#525,#526);
#411=AXIS2_PLACEMENT_3D('',#619,#527,#528);
#412=AXIS2_PLACEMENT_3D('',#620,#529,#530);
#413=AXIS2_PLACEMENT_3D('',#622,#531,#532);
#414=AXIS2_PLACEMENT_3D('',#623,#533,#534);
#415=DIRECTION('',(0.0,0.0,1.0));
#416=DIRECTION('',(1.0,0.0,0.0));
#417=DIRECTION('',(0.0,0.0,1.0));
#418=DIRECTION('',(1.0,0.0,0.0));
#419=DIRECTION('',(0.0,0.0,-1.0));
#420=DIRECTION('',(-1.0,0.0,0.0));
#421=DIRECTION('',(0.0,0.0,1.0));
#422=DIRECTION('',(1.0,0.0,0.0));
#423=DIRECTION('',(0.0,0.0,1.0));
#424=DIRECTION('',(1.0,0.0,0.0));
#425=DIRECTION('',(0.0,0.0,1.0));
#426=DIRECTION('',(1.0,0.0,0.0));
#427=DIRECTION('',(0.0,0.0,1.0));
#428=DIRECTION('',(1.0,0.0,0.0));
#429=DIRECTION('',(0.0,0.0,1.0));
#430=DIRECTION('',(1.0,0.0,0.0));
#431=DIRECTION('',(0.0,0.0,-1.0));
#432=DIRECTION('',(-1.0,0.0,4.48464824240131E-17));
#433=DIRECTION('',(0.0,0.0,1.0));
#434=DIRECTION('',(1.0,0.0,0.0));
#435=DIRECTION('',(0.0,0.0,1.0));
#436=DIRECTION('',(1.0,0.0,0.0));
#437=DIRECTION('',(0.0,0.0,1.0));
#438=DIRECTION('',(1.0,0.0,0.0));
#439=DIRECTION('',(0.0,0.0,1.0));
#440=DIRECTION('',(1.0,0.0,0.0));
#441=DIRECTION('',(0.0,0.0,1.0));
#442=DIRECTION('',(1.0,0.0,0.0));
#443=DIRECTION('',(0.0,0.0,1.0));
#444=DIRECTION('',(1.0,0.0,0.0));
#445=DIRECTION('',(0.0,0.0,1.0));
#446=DIRECTION('',(1.0,0.0,0.0));
#447=DIRECTION('',(0.0,0.0,1.0));
#448=DIRECTION('',(1.0,0.0,0.0));
#449=DIRECTION('',(0.0,0.0,1.0));
#450=DIRECTION('',(1.0,0.0,0.0));
#451=DIRECTION('',(0.0,0.0,1.0));
#452=DIRECTION('',(1.0,0.0,-2.45878596044149E-17));
#453=DIRECTION('',(0.0,0.0,1.0));
#454=DIRECTION('',(1.0,0.0,0.0));
#455=DIRECTION('',(0.0,0.0,-1.0));
#456=DIRECTION('',(-1.0,0.0,0.0));
#457=DIRECTION('',(0.0,0.0,1.0));
#458=DIRECTION('',(1.0,0.0,0.0));
#459=DIRECTION('',(0.0,0.0,1.0));
#460=DIRECTION('',(1.0,0.0,0.0));
#461=DIRECTION('',(0.0,0.0,1.0));
#462=DIRECTION('',(1.0,0.0,0.0));
#463=DIRECTION('',(0.0,0.0,1.0));
#464=DIRECTION('',(1.0,0.0,0.0));
#465=DIRECTION('',(0.0,0.0,1.0));
#466=DIRECTION('',(1.0,0.0,0.0));
#467=DIRECTION('',(0.0,0.0,-1.0));
#468=DIRECTION('',(-1.0,0.0,-3.3506157368676E-17));
#469=DIRECTION('',(0.0,0.0,1.0));
#470=DIRECTION('',(1.0,0.0,0.0));
#471=DIRECTION('',(0.0,0.0,1.0));
#472=DIRECTION('',(1.0,0.0,0.0));
#473=DIRECTION('',(0.0,0.0,1.0));
#474=DIRECTION('',(1.0,0.0,0.0));
#475=DIRECTION('',(0.0,0.0,-1.0));
#476=DIRECTION('',(-1.0,0.0,0.0));
#477=DIRECTION('',(0.0,0.0,1.0));
#478=DIRECTION('',(1.0,0.0,0.0));
#479=DIRECTION('',(0.0,0.0,1.0));
#480=DIRECTION('',(1.0,0.0,0.0));
#481=DIRECTION('',(0.0,0.0,1.0));
#482=DIRECTION('',(1.0,0.0,0.0));
#483=DIRECTION('',(0.0,0.0,1.0));
#484=DIRECTION('',(1.0,0.0,0.0));
#485=DIRECTION('',(0.0,0.0,1.0));
#486=DIRECTION('',(1.0,0.0,0.0));
#487=DIRECTION('',(0.0,0.0,1.0));
#488=DIRECTION('',(1.0,0.0,0.0));
#489=DIRECTION('',(0.0,0.0,1.0));
#490=DIRECTION('',(1.0,0.0,0.0));
#491=DIRECTION('',(0.0,0.0,-1.0));
#492=DIRECTION('',(-1.0,0.0,0.0));
#493=DIRECTION('',(0.0,0.0,1.0));
#494=DIRECTION('',(1.0,0.0,0.0));
#495=DIRECTION('',(0.0,0.0,1.0));
#496=DIRECTION('',(1.0,0.0,0.0));
#497=DIRECTION('',(0.0,0.0,1.0));
#498=DIRECTION('',(1.0,0.0,0.0));
#499=DIRECTION('',(0.0,0.0,-1.0));
#500=DIRECTION('',(-1.0,0.0,0.0));
#501=DIRECTION('',(0.0,0.0,1.0));
#502=DIRECTION('',(1.0,0.0,0.0));
#503=DIRECTION('',(0.0,0.0,1.0));
#504=DIRECTION('',(1.0,0.0,0.0));
#505=DIRECTION('',(0.0,0.0,1.0));
#506=DIRECTION('',(1.0,0.0,0.0));
#507=DIRECTION('',(0.0,0.0,1.0));
#508=DIRECTION('',(1.0,0.0,0.0));
#509=DIRECTION('',(0.0,0.0,1.0));
#510=DIRECTION('',(1.0,0.0,0.0));
#511=DIRECTION('',(0.0,0.0,1.0));
#512=DIRECTION('',(1.0,0.0,0.0));
#513=DIRECTION('',(0.0,0.0,1.0));
#514=DIRECTION('',(1.0,0.0,0.0));
#515=DIRECTION('',(0.0,0.0,1.0));
#516=DIRECTION('',(1.0,0.0,0.0));
#517=DIRECTION('',(0.0,0.0,1.0));
#518=DIRECTION('',(1.0,0.0,0.0));
#519=DIRECTION('',(0.0,0.0,1.0));
#520=DIRECTION('',(1.0,0.0,0.0));
#521=DIRECTION('',(0.0,0.0,1.0));
#522=DIRECTION('',(1.0,0.0,0.0));
#523=DIRECTION('',(0.0,0.0,1.0));
#524=DIRECTION('',(1.0,0.0,5.47447250801364E-17));
#525=DIRECTION('',(0.0,0.0,1.0));
#526=DIRECTION('',(1.0,0.0,0.0));
#527=DIRECTION('',(0.0,0.0,-1.0));
#528=DIRECTION('',(-1.0,0.0,0.0));
#529=DIRECTION('',(0.0,0.0,1.0));
#530=DIRECTION('',(1.0,0.0,0.0));
#531=DIRECTION('',(0.0,0.0,1.0));
#532=DIRECTION('',(1.0,0.0,0.0));
#533=DIRECTION('',(0.0,0.0,1.0));
#534=DIRECTION('',(1.0,0.0,0.0));
#535=CARTESIAN_POINT('',(0.0,0.0,0.0));
#536=CARTESIAN_POINT('',(0.0,0.0,-72.5));
#537=CARTESIAN_POINT('',(6.99999999999999,0.0,-72.5));
#538=CARTESIAN_POINT('',(0.0,6.99999999999999,-72.5));
#539=CARTESIAN_POINT('',(0.0,0.0,48.4));
#540=CARTESIAN_POINT('',(8.3836346024001,0.0,48.4));
#541=CARTESIAN_POINT('',(0.0,6.25675,48.4));
#542=CARTESIAN_POINT('',(0.0,0.0,47.9721601103663));
#543=CARTESIAN_POINT('',(8.87840012107731,0.0,47.9721601103663));
#544=CARTESIAN_POINT('',(0.0,0.0,47.9));
#545=CARTESIAN_POINT('',(0.0,0.0,0.0));
#546=CARTESIAN_POINT('',(15.875,0.0,0.0));
#547=CARTESIAN_POINT('',(0.0,0.0,47.9721601103663));
#548=CARTESIAN_POINT('',(0.0,0.0,-0.428444402022631));
#549=CARTESIAN_POINT('',(15.575,0.0,-0.428444402022631));
#550=CARTESIAN_POINT('',(0.0,0.0,0.0));
#551=CARTESIAN_POINT('',(0.0,0.0,-1.0));
#552=CARTESIAN_POINT('',(15.575,0.0,-1.0));
#553=CARTESIAN_POINT('',(0.0,0.0,0.0));
#554=CARTESIAN_POINT('',(0.0,0.0,-1.0));
#555=CARTESIAN_POINT('',(22.99025,0.0,-1.0));
#556=CARTESIAN_POINT('',(0.0,15.575,-1.0));
#557=CARTESIAN_POINT('',(0.0,0.0,-9.58398933275901));
#558=CARTESIAN_POINT('',(22.99025,0.0,-9.58398933275901));
#559=CARTESIAN_POINT('',(0.0,0.0,0.0));
#560=CARTESIAN_POINT('',(0.0,0.0,-11.6));
#561=CARTESIAN_POINT('',(19.480757323931,0.0,-11.6));
#562=CARTESIAN_POINT('',(0.0,0.0,-9.58398933275901));
#563=CARTESIAN_POINT('',(0.0,0.0,-11.6));
#564=CARTESIAN_POINT('',(19.0,0.0,-11.6));
#565=CARTESIAN_POINT('',(0.0,19.480757323931,-11.6));
#566=CARTESIAN_POINT('',(0.0,0.0,-15.6));
#567=CARTESIAN_POINT('',(19.0,0.0,-15.6));
#568=CARTESIAN_POINT('',(0.0,0.0,0.0));
#569=CARTESIAN_POINT('',(0.0,0.0,-15.6));
#570=CARTESIAN_POINT('',(19.480757323931,0.0,-15.6));
#571=CARTESIAN_POINT('',(0.0,19.0,-15.6));
#572=CARTESIAN_POINT('',(0.0,0.0,-17.616010667241));
#573=CARTESIAN_POINT('',(22.9902500000002,0.0,-17.616010667241));
#574=CARTESIAN_POINT('',(0.0,0.0,-15.6));
#575=CARTESIAN_POINT('',(0.0,0.0,-22.0));
#576=CARTESIAN_POINT('',(22.99025,0.0,-22.0));
#577=CARTESIAN_POINT('',(0.0,0.0,0.0));
#578=CARTESIAN_POINT('',(0.0,0.0,-22.0));
#579=CARTESIAN_POINT('',(22.5,0.0,-22.0));
#580=CARTESIAN_POINT('',(0.0,22.99025,-22.0));
#581=CARTESIAN_POINT('',(0.0,0.0,-25.0));
#582=CARTESIAN_POINT('',(22.5,0.0,-25.0));
#583=CARTESIAN_POINT('',(0.0,0.0,0.0));
#584=CARTESIAN_POINT('',(0.0,0.0,-25.0));
#585=CARTESIAN_POINT('',(24.0,0.0,-25.0));
#586=CARTESIAN_POINT('',(0.0,22.5,-25.0));
#587=CARTESIAN_POINT('',(0.0,0.0,-40.0));
#588=CARTESIAN_POINT('',(24.0,0.0,-40.0));
#589=CARTESIAN_POINT('',(0.0,0.0,0.0));
#590=CARTESIAN_POINT('',(0.0,0.0,-40.0));
#591=CARTESIAN_POINT('',(11.0,0.0,-40.0));
#592=CARTESIAN_POINT('',(0.0,24.0,-40.0));
#593=CARTESIAN_POINT('',(0.0,0.0,-56.0));
#594=CARTESIAN_POINT('',(11.0,0.0,-56.0));
#595=CARTESIAN_POINT('',(0.0,0.0,0.0));
#596=CARTESIAN_POINT('',(0.0,0.0,-56.0));
#597=CARTESIAN_POINT('',(5.0,0.0,-56.0));
#598=CARTESIAN_POINT('',(0.0,11.0,-56.0));
#599=CARTESIAN_POINT('',(0.0,0.0,-66.0));
#600=CARTESIAN_POINT('',(5.0,0.0,-66.0));
#601=CARTESIAN_POINT('',(0.0,0.0,0.0));
#602=CARTESIAN_POINT('',(0.0,0.0,-66.0));
#603=CARTESIAN_POINT('',(5.5,0.0,-66.0));
#604=CARTESIAN_POINT('',(0.0,5.0,-66.0));
#605=CARTESIAN_POINT('',(0.0,0.0,-61.0));
#606=CARTESIAN_POINT('',(5.5,0.0,-61.0));
#607=CARTESIAN_POINT('',(0.0,0.0,0.0));
#608=CARTESIAN_POINT('',(0.0,0.0,-61.0));
#609=CARTESIAN_POINT('',(14.0,0.0,-61.0));
#610=CARTESIAN_POINT('',(0.0,5.5,-61.0));
#611=CARTESIAN_POINT('',(0.0,0.0,-65.0));
#612=CARTESIAN_POINT('',(14.0,0.0,-65.0));
#613=CARTESIAN_POINT('',(0.0,0.0,0.0));
#614=CARTESIAN_POINT('',(0.0,0.0,-66.0));
#615=CARTESIAN_POINT('',(13.0,0.0,-66.0));
#616=CARTESIAN_POINT('',(0.0,0.0,-65.0));
#617=CARTESIAN_POINT('',(0.0,0.0,-66.0));
#618=CARTESIAN_POINT('',(8.0,0.0,-66.0));
#619=CARTESIAN_POINT('',(0.0,13.0,-66.0));
#620=CARTESIAN_POINT('',(0.0,0.0,-71.5));
#621=CARTESIAN_POINT('',(7.99999999999999,0.0,-71.5));
#622=CARTESIAN_POINT('',(0.0,0.0,0.0));
#623=CARTESIAN_POINT('',(0.0,0.0,-71.5));
#624=MECHANICAL_DESIGN_GEOMETRIC_PRESENTATION_REPRESENTATION('',(#24),#625);
#625=(GEOMETRIC_REPRESENTATION_CONTEXT(3)GLOBAL_UNCERTAINTY_ASSIGNED_CONTEXT((#626))
     GLOBAL_UNIT_ASSIGNED_CONTEXT((#632,#628,#627))REPRESENTATION_CONTEXT('392','TOP_LEVEL_ASSEMBLY_PART'));
#626=UNCERTAINTY_MEASURE_WITH_UNIT(LENGTH_MEASURE(2.0E-5),#632,'DISTANCE_ACCURACY_VALUE',
     'Maximum Tolerance applied to model');
#627=(NAMED_UNIT(*)SI_UNIT($,.STERADIAN.)SOLID_ANGLE_UNIT());
#628=(CONVERSION_BASED_UNIT('DEGREE',#630)NAMED_UNIT(*)PLANE_ANGLE_UNIT());
#629=DIMENSIONAL_EXPONENTS(0.0,0.0,0.0,0.0,0.0,0.0,0.0);
#630=PLANE_ANGLE_MEASURE_WITH_UNIT(PLANE_ANGLE_MEASURE(0.0174532925),#631);
#631=(NAMED_UNIT(*)PLANE_ANGLE_UNIT()SI_UNIT($,.RADIAN.));
#632=(LENGTH_UNIT()NAMED_UNIT(*)SI_UNIT(.MILLI.,.METRE.));
#633=CARTESIAN_POINT('',(0.0,0.0,0.0));
#634=DIRECTION('',(0.0,0.0,1.0));
#635=DIRECTION('',(1.0,0.0,0.0));
#636=AXIS2_PLACEMENT_3D('PCS',#633,#634,#635);
#637=CARTESIAN_POINT('',(0.0,0.0,0.0));
#638=DIRECTION('',(0.0,0.0,1.0));
#639=DIRECTION('',(1.0,0.0,0.0));
#640=AXIS2_PLACEMENT_3D('MCS',#637,#638,#639);
#641=CARTESIAN_POINT('',(0.0,0.0,-40.0));
#642=DIRECTION('',(0.0,0.0,1.0));
#643=DIRECTION('',(1.0,0.0,0.0));
#644=AXIS2_PLACEMENT_3D('CSW',#641,#642,#643);
#645=CONSTRUCTIVE_GEOMETRY_REPRESENTATION('supplemental geometry',(#636,#640,#644),
     #625);
#646=CONSTRUCTIVE_GEOMETRY_REPRESENTATION_RELATIONSHIP('supplemental geometry',$,
     #22,#645);
ENDSEC;
END-ISO-10303-21;
