ISO-10303-21;
HEADER;
FILE_DESCRIPTION(
/* description */ ('3-D model version:1'),
/* implementation_level */ '2;1');
FILE_NAME(
/* name */ '392.55505C3016040',
/* time_stamp */ '2016-12-02T14:00:20',
/* author */ ('InteractiveCad'),
/* organization */ ('AB Sandvik Coromant'),
/* preprocessor_version */ 'ST-DEVELOPER v11',
/* originating_system */ 'SIEMENS UGS NX 6.0',
/* authorization */ '');
FILE_SCHEMA(('AUTOMOTIVE_DESIGN'));
ENDSEC;
DATA;
#10=SHAPE_REPRESENTATION_RELATIONSHIP('None','relationship between 392.55505C3016040_635397152669407490_1_stp-None a\X\0Dnd 392.55505C3016040_635397152669407490_1_stp-None',
     #22,#11);
#11=ADVANCED_BREP_SHAPE_REPRESENTATION('392.55505C3016040_635397152669407490_1_stp-None',
     (#32),#625);
#12=SHAPE_DEFINITION_REPRESENTATION(#13,#22);
#13=PRODUCT_DEFINITION_SHAPE('','',#14);
#14=PRODUCT_DEFINITION(' ','',#16,#15);
#15=PRODUCT_DEFINITION_CONTEXT('part definition',#21,'design');
#16=PRODUCT_DEFINITION_FORMATION_WITH_SPECIFIED_SOURCE(' ',' ',#18,.NOT_KNOWN.);
#17=PRODUCT_RELATED_PRODUCT_CATEGORY('part','',(#18));
#18=PRODUCT('392.55505C3016040_635397152669407490_1_stp','392.55505C3016040_635397152669407490_1_stp',
     ' ',(#19));
#19=PRODUCT_CONTEXT(' ',#21,'mechanical');
#20=APPLICATION_PROTOCOL_DEFINITION('international standard','automotive_design',
     2001,#21);
#21=APPLICATION_CONTEXT('core data for automotive mechanical design processes');
#22=SHAPE_REPRESENTATION('392.55505C3016040_635397152669407490_1_stp-None',(#355),
     #625);
#23=PRESENTATION_LAYER_ASSIGNMENT('1','Layer 1',(#32));
#24=STYLED_ITEM('',(#25),#32);
#25=PRESENTATION_STYLE_ASSIGNMENT((#26));
#26=SURFACE_STYLE_USAGE(.BOTH.,#27);
#27=SURFACE_SIDE_STYLE('',(#28));
#28=SURFACE_STYLE_FILL_AREA(#29);
#29=FILL_AREA_STYLE('',(#30));
#30=FILL_AREA_STYLE_COLOUR('',#31);
#31=COLOUR_RGB('TLS_NOCUT',0.499992370489052,0.499992370489052,0.499992370489052);
#32=MANIFOLD_SOLID_BREP('NOCUT',#33);
#33=CLOSED_SHELL('',(#55,#56,#57,#58,#59,#60,#61,#62,#63,#64,#65,#66,#67,#68,#69,
     #70,#71,#72,#73,#74,#75,#76,#77,#78,#79,#80,#81,#82,#83,#84));
#34=FACE_OUTER_BOUND('',#192,.T.);
#35=FACE_OUTER_BOUND('',#193,.T.);
#36=TOROIDAL_SURFACE('',#396,8.3836346024001,0.5);
#37=TOROIDAL_SURFACE('',#401,5.99999999999998,0.5);
#38=CONICAL_SURFACE('',#376,22.99025,60.1249999999989);
#39=CONICAL_SURFACE('',#384,19.480757323931,60.125);
#40=CONICAL_SURFACE('',#392,15.575,35.0000000000006);
#41=CONICAL_SURFACE('',#394,15.875,8.2979166666667);
#42=CONICAL_SURFACE('',#407,8.99999999999999,45.0000000000001);
#43=PLANE('',#360);
#44=PLANE('',#364);
#45=PLANE('',#368);
#46=PLANE('',#372);
#47=PLANE('',#378);
#48=PLANE('',#382);
#49=PLANE('',#388);
#50=PLANE('',#397);
#51=PLANE('',#399);
#52=PLANE('',#405);
#53=PLANE('',#411);
#54=PLANE('',#414);
#55=ADVANCED_FACE('',(#96,#97),#85,.T.);
#56=ADVANCED_FACE('',(#98,#99),#43,.T.);
#57=ADVANCED_FACE('',(#100,#101),#86,.T.);
#58=ADVANCED_FACE('',(#102,#103),#44,.T.);
#59=ADVANCED_FACE('',(#104,#105),#87,.T.);
#60=ADVANCED_FACE('',(#106,#107),#45,.T.);
#61=ADVANCED_FACE('',(#108,#109),#88,.T.);
#62=ADVANCED_FACE('',(#110,#111),#46,.T.);
#63=ADVANCED_FACE('',(#112,#113),#89,.T.);
#64=ADVANCED_FACE('',(#114,#115),#38,.T.);
#65=ADVANCED_FACE('',(#116,#117),#47,.T.);
#66=ADVANCED_FACE('',(#118,#119),#90,.T.);
#67=ADVANCED_FACE('',(#120,#121),#48,.T.);
#68=ADVANCED_FACE('',(#122,#123),#39,.T.);
#69=ADVANCED_FACE('',(#124,#125),#91,.T.);
#70=ADVANCED_FACE('',(#126,#127),#49,.T.);
#71=ADVANCED_FACE('',(#128,#129),#92,.T.);
#72=ADVANCED_FACE('',(#130,#131),#40,.T.);
#73=ADVANCED_FACE('',(#132,#133),#41,.T.);
#74=ADVANCED_FACE('',(#134,#135),#36,.T.);
#75=ADVANCED_FACE('',(#34),#50,.T.);
#76=ADVANCED_FACE('',(#35),#51,.T.);
#77=ADVANCED_FACE('',(#136,#137),#37,.T.);
#78=ADVANCED_FACE('',(#138,#139),#93,.T.);
#79=ADVANCED_FACE('',(#140,#141),#52,.T.);
#80=ADVANCED_FACE('',(#142,#143),#42,.T.);
#81=ADVANCED_FACE('',(#144,#145),#94,.T.);
#82=ADVANCED_FACE('',(#146,#147),#53,.T.);
#83=ADVANCED_FACE('',(#148,#149),#95,.F.);
#84=ADVANCED_FACE('',(#150,#151),#54,.T.);
#85=CYLINDRICAL_SURFACE('',#358,3.89699999999999);
#86=CYLINDRICAL_SURFACE('',#362,8.0);
#87=CYLINDRICAL_SURFACE('',#366,15.9);
#88=CYLINDRICAL_SURFACE('',#370,16.0);
#89=CYLINDRICAL_SURFACE('',#374,22.99025);
#90=CYLINDRICAL_SURFACE('',#380,19.0);
#91=CYLINDRICAL_SURFACE('',#386,22.99025);
#92=CYLINDRICAL_SURFACE('',#390,15.575);
#93=CYLINDRICAL_SURFACE('',#403,6.49999999999999);
#94=CYLINDRICAL_SURFACE('',#409,9.99999999999999);
#95=CYLINDRICAL_SURFACE('',#413,4.49999999999999);
#96=FACE_BOUND('',#152,.T.);
#97=FACE_BOUND('',#153,.T.);
#98=FACE_BOUND('',#154,.T.);
#99=FACE_BOUND('',#155,.T.);
#100=FACE_BOUND('',#156,.T.);
#101=FACE_BOUND('',#157,.T.);
#102=FACE_BOUND('',#158,.T.);
#103=FACE_BOUND('',#159,.T.);
#104=FACE_BOUND('',#160,.T.);
#105=FACE_BOUND('',#161,.T.);
#106=FACE_BOUND('',#162,.T.);
#107=FACE_BOUND('',#163,.T.);
#108=FACE_BOUND('',#164,.T.);
#109=FACE_BOUND('',#165,.T.);
#110=FACE_BOUND('',#166,.T.);
#111=FACE_BOUND('',#167,.T.);
#112=FACE_BOUND('',#168,.T.);
#113=FACE_BOUND('',#169,.T.);
#114=FACE_BOUND('',#170,.T.);
#115=FACE_BOUND('',#171,.T.);
#116=FACE_BOUND('',#172,.T.);
#117=FACE_BOUND('',#173,.T.);
#118=FACE_BOUND('',#174,.T.);
#119=FACE_BOUND('',#175,.T.);
#120=FACE_BOUND('',#176,.T.);
#121=FACE_BOUND('',#177,.T.);
#122=FACE_BOUND('',#178,.T.);
#123=FACE_BOUND('',#179,.T.);
#124=FACE_BOUND('',#180,.T.);
#125=FACE_BOUND('',#181,.T.);
#126=FACE_BOUND('',#182,.T.);
#127=FACE_BOUND('',#183,.T.);
#128=FACE_BOUND('',#184,.T.);
#129=FACE_BOUND('',#185,.T.);
#130=FACE_BOUND('',#186,.T.);
#131=FACE_BOUND('',#187,.T.);
#132=FACE_BOUND('',#188,.T.);
#133=FACE_BOUND('',#189,.T.);
#134=FACE_BOUND('',#190,.T.);
#135=FACE_BOUND('',#191,.T.);
#136=FACE_BOUND('',#194,.T.);
#137=FACE_BOUND('',#195,.T.);
#138=FACE_BOUND('',#196,.T.);
#139=FACE_BOUND('',#197,.T.);
#140=FACE_BOUND('',#198,.T.);
#141=FACE_BOUND('',#199,.T.);
#142=FACE_BOUND('',#200,.T.);
#143=FACE_BOUND('',#201,.T.);
#144=FACE_BOUND('',#202,.T.);
#145=FACE_BOUND('',#203,.T.);
#146=FACE_BOUND('',#204,.T.);
#147=FACE_BOUND('',#205,.T.);
#148=FACE_BOUND('',#206,.T.);
#149=FACE_BOUND('',#207,.T.);
#150=FACE_BOUND('',#208,.T.);
#151=FACE_BOUND('',#209,.T.);
#152=EDGE_LOOP('',(#210));
#153=EDGE_LOOP('',(#211));
#154=EDGE_LOOP('',(#212));
#155=EDGE_LOOP('',(#213));
#156=EDGE_LOOP('',(#214));
#157=EDGE_LOOP('',(#215));
#158=EDGE_LOOP('',(#216));
#159=EDGE_LOOP('',(#217));
#160=EDGE_LOOP('',(#218));
#161=EDGE_LOOP('',(#219));
#162=EDGE_LOOP('',(#220));
#163=EDGE_LOOP('',(#221));
#164=EDGE_LOOP('',(#222));
#165=EDGE_LOOP('',(#223));
#166=EDGE_LOOP('',(#224));
#167=EDGE_LOOP('',(#225));
#168=EDGE_LOOP('',(#226));
#169=EDGE_LOOP('',(#227));
#170=EDGE_LOOP('',(#228));
#171=EDGE_LOOP('',(#229));
#172=EDGE_LOOP('',(#230));
#173=EDGE_LOOP('',(#231));
#174=EDGE_LOOP('',(#232));
#175=EDGE_LOOP('',(#233));
#176=EDGE_LOOP('',(#234));
#177=EDGE_LOOP('',(#235));
#178=EDGE_LOOP('',(#236));
#179=EDGE_LOOP('',(#237));
#180=EDGE_LOOP('',(#238));
#181=EDGE_LOOP('',(#239));
#182=EDGE_LOOP('',(#240));
#183=EDGE_LOOP('',(#241));
#184=EDGE_LOOP('',(#242));
#185=EDGE_LOOP('',(#243));
#186=EDGE_LOOP('',(#244));
#187=EDGE_LOOP('',(#245));
#188=EDGE_LOOP('',(#246));
#189=EDGE_LOOP('',(#247));
#190=EDGE_LOOP('',(#248));
#191=EDGE_LOOP('',(#249));
#192=EDGE_LOOP('',(#250));
#193=EDGE_LOOP('',(#251));
#194=EDGE_LOOP('',(#252));
#195=EDGE_LOOP('',(#253));
#196=EDGE_LOOP('',(#254));
#197=EDGE_LOOP('',(#255));
#198=EDGE_LOOP('',(#256));
#199=EDGE_LOOP('',(#257));
#200=EDGE_LOOP('',(#258));
#201=EDGE_LOOP('',(#259));
#202=EDGE_LOOP('',(#260));
#203=EDGE_LOOP('',(#261));
#204=EDGE_LOOP('',(#262));
#205=EDGE_LOOP('',(#263));
#206=EDGE_LOOP('',(#264));
#207=EDGE_LOOP('',(#265));
#208=EDGE_LOOP('',(#266));
#209=EDGE_LOOP('',(#267));
#210=ORIENTED_EDGE('',*,*,#297,.T.);
#211=ORIENTED_EDGE('',*,*,#298,.F.);
#212=ORIENTED_EDGE('',*,*,#299,.T.);
#213=ORIENTED_EDGE('',*,*,#297,.F.);
#214=ORIENTED_EDGE('',*,*,#300,.T.);
#215=ORIENTED_EDGE('',*,*,#299,.F.);
#216=ORIENTED_EDGE('',*,*,#301,.T.);
#217=ORIENTED_EDGE('',*,*,#300,.F.);
#218=ORIENTED_EDGE('',*,*,#302,.T.);
#219=ORIENTED_EDGE('',*,*,#301,.F.);
#220=ORIENTED_EDGE('',*,*,#303,.T.);
#221=ORIENTED_EDGE('',*,*,#302,.F.);
#222=ORIENTED_EDGE('',*,*,#304,.T.);
#223=ORIENTED_EDGE('',*,*,#303,.F.);
#224=ORIENTED_EDGE('',*,*,#305,.T.);
#225=ORIENTED_EDGE('',*,*,#304,.F.);
#226=ORIENTED_EDGE('',*,*,#306,.T.);
#227=ORIENTED_EDGE('',*,*,#305,.F.);
#228=ORIENTED_EDGE('',*,*,#307,.T.);
#229=ORIENTED_EDGE('',*,*,#306,.F.);
#230=ORIENTED_EDGE('',*,*,#308,.T.);
#231=ORIENTED_EDGE('',*,*,#307,.F.);
#232=ORIENTED_EDGE('',*,*,#309,.T.);
#233=ORIENTED_EDGE('',*,*,#308,.F.);
#234=ORIENTED_EDGE('',*,*,#310,.T.);
#235=ORIENTED_EDGE('',*,*,#309,.F.);
#236=ORIENTED_EDGE('',*,*,#311,.T.);
#237=ORIENTED_EDGE('',*,*,#310,.F.);
#238=ORIENTED_EDGE('',*,*,#312,.T.);
#239=ORIENTED_EDGE('',*,*,#311,.F.);
#240=ORIENTED_EDGE('',*,*,#313,.T.);
#241=ORIENTED_EDGE('',*,*,#312,.F.);
#242=ORIENTED_EDGE('',*,*,#314,.T.);
#243=ORIENTED_EDGE('',*,*,#313,.F.);
#244=ORIENTED_EDGE('',*,*,#315,.T.);
#245=ORIENTED_EDGE('',*,*,#314,.F.);
#246=ORIENTED_EDGE('',*,*,#316,.T.);
#247=ORIENTED_EDGE('',*,*,#315,.F.);
#248=ORIENTED_EDGE('',*,*,#317,.T.);
#249=ORIENTED_EDGE('',*,*,#316,.F.);
#250=ORIENTED_EDGE('',*,*,#317,.F.);
#251=ORIENTED_EDGE('',*,*,#318,.T.);
#252=ORIENTED_EDGE('',*,*,#319,.T.);
#253=ORIENTED_EDGE('',*,*,#318,.F.);
#254=ORIENTED_EDGE('',*,*,#320,.T.);
#255=ORIENTED_EDGE('',*,*,#319,.F.);
#256=ORIENTED_EDGE('',*,*,#321,.T.);
#257=ORIENTED_EDGE('',*,*,#320,.F.);
#258=ORIENTED_EDGE('',*,*,#322,.T.);
#259=ORIENTED_EDGE('',*,*,#321,.F.);
#260=ORIENTED_EDGE('',*,*,#323,.T.);
#261=ORIENTED_EDGE('',*,*,#322,.F.);
#262=ORIENTED_EDGE('',*,*,#324,.T.);
#263=ORIENTED_EDGE('',*,*,#323,.F.);
#264=ORIENTED_EDGE('',*,*,#325,.T.);
#265=ORIENTED_EDGE('',*,*,#324,.F.);
#266=ORIENTED_EDGE('',*,*,#298,.T.);
#267=ORIENTED_EDGE('',*,*,#325,.F.);
#268=VERTEX_POINT('',#537);
#269=VERTEX_POINT('',#539);
#270=VERTEX_POINT('',#542);
#271=VERTEX_POINT('',#545);
#272=VERTEX_POINT('',#548);
#273=VERTEX_POINT('',#551);
#274=VERTEX_POINT('',#554);
#275=VERTEX_POINT('',#557);
#276=VERTEX_POINT('',#560);
#277=VERTEX_POINT('',#563);
#278=VERTEX_POINT('',#566);
#279=VERTEX_POINT('',#569);
#280=VERTEX_POINT('',#572);
#281=VERTEX_POINT('',#575);
#282=VERTEX_POINT('',#578);
#283=VERTEX_POINT('',#581);
#284=VERTEX_POINT('',#584);
#285=VERTEX_POINT('',#587);
#286=VERTEX_POINT('',#590);
#287=VERTEX_POINT('',#593);
#288=VERTEX_POINT('',#596);
#289=VERTEX_POINT('',#600);
#290=VERTEX_POINT('',#603);
#291=VERTEX_POINT('',#606);
#292=VERTEX_POINT('',#609);
#293=VERTEX_POINT('',#612);
#294=VERTEX_POINT('',#615);
#295=VERTEX_POINT('',#618);
#296=VERTEX_POINT('',#621);
#297=EDGE_CURVE('',#268,#268,#326,.T.);
#298=EDGE_CURVE('',#269,#269,#327,.T.);
#299=EDGE_CURVE('',#270,#270,#328,.T.);
#300=EDGE_CURVE('',#271,#271,#329,.T.);
#301=EDGE_CURVE('',#272,#272,#330,.T.);
#302=EDGE_CURVE('',#273,#273,#331,.T.);
#303=EDGE_CURVE('',#274,#274,#332,.T.);
#304=EDGE_CURVE('',#275,#275,#333,.T.);
#305=EDGE_CURVE('',#276,#276,#334,.T.);
#306=EDGE_CURVE('',#277,#277,#335,.T.);
#307=EDGE_CURVE('',#278,#278,#336,.T.);
#308=EDGE_CURVE('',#279,#279,#337,.T.);
#309=EDGE_CURVE('',#280,#280,#338,.T.);
#310=EDGE_CURVE('',#281,#281,#339,.T.);
#311=EDGE_CURVE('',#282,#282,#340,.T.);
#312=EDGE_CURVE('',#283,#283,#341,.T.);
#313=EDGE_CURVE('',#284,#284,#342,.T.);
#314=EDGE_CURVE('',#285,#285,#343,.T.);
#315=EDGE_CURVE('',#286,#286,#344,.T.);
#316=EDGE_CURVE('',#287,#287,#345,.T.);
#317=EDGE_CURVE('',#288,#288,#346,.T.);
#318=EDGE_CURVE('',#289,#289,#347,.T.);
#319=EDGE_CURVE('',#290,#290,#348,.T.);
#320=EDGE_CURVE('',#291,#291,#349,.T.);
#321=EDGE_CURVE('',#292,#292,#350,.T.);
#322=EDGE_CURVE('',#293,#293,#351,.T.);
#323=EDGE_CURVE('',#294,#294,#352,.T.);
#324=EDGE_CURVE('',#295,#295,#353,.T.);
#325=EDGE_CURVE('',#296,#296,#354,.T.);
#326=CIRCLE('',#356,3.897);
#327=CIRCLE('',#357,3.89699999999999);
#328=CIRCLE('',#359,8.0);
#329=CIRCLE('',#361,8.0);
#330=CIRCLE('',#363,15.9);
#331=CIRCLE('',#365,15.9);
#332=CIRCLE('',#367,16.0);
#333=CIRCLE('',#369,16.0);
#334=CIRCLE('',#371,22.99025);
#335=CIRCLE('',#373,22.99025);
#336=CIRCLE('',#375,19.4807573239311);
#337=CIRCLE('',#377,19.0);
#338=CIRCLE('',#379,19.0);
#339=CIRCLE('',#381,19.480757323931);
#340=CIRCLE('',#383,22.99025);
#341=CIRCLE('',#385,22.99025);
#342=CIRCLE('',#387,15.575);
#343=CIRCLE('',#389,15.575);
#344=CIRCLE('',#391,15.875);
#345=CIRCLE('',#393,8.87840012107731);
#346=CIRCLE('',#395,8.3836346024001);
#347=CIRCLE('',#398,5.99999999999998);
#348=CIRCLE('',#400,6.49999999999998);
#349=CIRCLE('',#402,6.49999999999999);
#350=CIRCLE('',#404,8.99999999999999);
#351=CIRCLE('',#406,10.0);
#352=CIRCLE('',#408,9.99999999999999);
#353=CIRCLE('',#410,4.49999999999999);
#354=CIRCLE('',#412,4.49999999999999);
#355=AXIS2_PLACEMENT_3D('',#535,#415,#416);
#356=AXIS2_PLACEMENT_3D('',#536,#417,#418);
#357=AXIS2_PLACEMENT_3D('',#538,#419,#420);
#358=AXIS2_PLACEMENT_3D('',#540,#421,#422);
#359=AXIS2_PLACEMENT_3D('',#541,#423,#424);
#360=AXIS2_PLACEMENT_3D('',#543,#425,#426);
#361=AXIS2_PLACEMENT_3D('',#544,#427,#428);
#362=AXIS2_PLACEMENT_3D('',#546,#429,#430);
#363=AXIS2_PLACEMENT_3D('',#547,#431,#432);
#364=AXIS2_PLACEMENT_3D('',#549,#433,#434);
#365=AXIS2_PLACEMENT_3D('',#550,#435,#436);
#366=AXIS2_PLACEMENT_3D('',#552,#437,#438);
#367=AXIS2_PLACEMENT_3D('',#553,#439,#440);
#368=AXIS2_PLACEMENT_3D('',#555,#441,#442);
#369=AXIS2_PLACEMENT_3D('',#556,#443,#444);
#370=AXIS2_PLACEMENT_3D('',#558,#445,#446);
#371=AXIS2_PLACEMENT_3D('',#559,#447,#448);
#372=AXIS2_PLACEMENT_3D('',#561,#449,#450);
#373=AXIS2_PLACEMENT_3D('',#562,#451,#452);
#374=AXIS2_PLACEMENT_3D('',#564,#453,#454);
#375=AXIS2_PLACEMENT_3D('',#565,#455,#456);
#376=AXIS2_PLACEMENT_3D('',#567,#457,#458);
#377=AXIS2_PLACEMENT_3D('',#568,#459,#460);
#378=AXIS2_PLACEMENT_3D('',#570,#461,#462);
#379=AXIS2_PLACEMENT_3D('',#571,#463,#464);
#380=AXIS2_PLACEMENT_3D('',#573,#465,#466);
#381=AXIS2_PLACEMENT_3D('',#574,#467,#468);
#382=AXIS2_PLACEMENT_3D('',#576,#469,#470);
#383=AXIS2_PLACEMENT_3D('',#577,#471,#472);
#384=AXIS2_PLACEMENT_3D('',#579,#473,#474);
#385=AXIS2_PLACEMENT_3D('',#580,#475,#476);
#386=AXIS2_PLACEMENT_3D('',#582,#477,#478);
#387=AXIS2_PLACEMENT_3D('',#583,#479,#480);
#388=AXIS2_PLACEMENT_3D('',#585,#481,#482);
#389=AXIS2_PLACEMENT_3D('',#586,#483,#484);
#390=AXIS2_PLACEMENT_3D('',#588,#485,#486);
#391=AXIS2_PLACEMENT_3D('',#589,#487,#488);
#392=AXIS2_PLACEMENT_3D('',#591,#489,#490);
#393=AXIS2_PLACEMENT_3D('',#592,#491,#492);
#394=AXIS2_PLACEMENT_3D('',#594,#493,#494);
#395=AXIS2_PLACEMENT_3D('',#595,#495,#496);
#396=AXIS2_PLACEMENT_3D('',#597,#497,#498);
#397=AXIS2_PLACEMENT_3D('',#598,#499,#500);
#398=AXIS2_PLACEMENT_3D('',#599,#501,#502);
#399=AXIS2_PLACEMENT_3D('',#601,#503,#504);
#400=AXIS2_PLACEMENT_3D('',#602,#505,#506);
#401=AXIS2_PLACEMENT_3D('',#604,#507,#508);
#402=AXIS2_PLACEMENT_3D('',#605,#509,#510);
#403=AXIS2_PLACEMENT_3D('',#607,#511,#512);
#404=AXIS2_PLACEMENT_3D('',#608,#513,#514);
#405=AXIS2_PLACEMENT_3D('',#610,#515,#516);
#406=AXIS2_PLACEMENT_3D('',#611,#517,#518);
#407=AXIS2_PLACEMENT_3D('',#613,#519,#520);
#408=AXIS2_PLACEMENT_3D('',#614,#521,#522);
#409=AXIS2_PLACEMENT_3D('',#616,#523,#524);
#410=AXIS2_PLACEMENT_3D('',#617,#525,#526);
#411=AXIS2_PLACEMENT_3D('',#619,#527,#528);
#412=AXIS2_PLACEMENT_3D('',#620,#529,#530);
#413=AXIS2_PLACEMENT_3D('',#622,#531,#532);
#414=AXIS2_PLACEMENT_3D('',#623,#533,#534);
#415=DIRECTION('',(0.0,0.0,1.0));
#416=DIRECTION('',(1.0,0.0,0.0));
#417=DIRECTION('',(-6.62819716194123E-18,0.0,-1.0));
#418=DIRECTION('',(-1.0,0.0,0.0));
#419=DIRECTION('',(-6.62819716194123E-18,0.0,-1.0));
#420=DIRECTION('',(-1.0,0.0,0.0));
#421=DIRECTION('',(-6.62819716194123E-18,0.0,-1.0));
#422=DIRECTION('',(-1.0,0.0,6.62819716194123E-18));
#423=DIRECTION('',(-6.62819716194123E-18,0.0,-1.0));
#424=DIRECTION('',(-1.0,0.0,0.0));
#425=DIRECTION('',(-6.62819716194123E-18,0.0,-1.0));
#426=DIRECTION('',(-1.0,0.0,6.93889390390723E-18));
#427=DIRECTION('',(-6.62819716194123E-18,0.0,-1.0));
#428=DIRECTION('',(-1.0,0.0,0.0));
#429=DIRECTION('',(-6.62819716194123E-18,0.0,-1.0));
#430=DIRECTION('',(-1.0,0.0,6.62819716194123E-18));
#431=DIRECTION('',(-6.62819716194123E-18,0.0,-1.0));
#432=DIRECTION('',(-1.0,0.0,0.0));
#433=DIRECTION('',(-6.62819716194123E-18,0.0,-1.0));
#434=DIRECTION('',(-1.0,0.0,6.93889390390723E-18));
#435=DIRECTION('',(-6.62819716194123E-18,0.0,-1.0));
#436=DIRECTION('',(-1.0,0.0,0.0));
#437=DIRECTION('',(-6.62819716194123E-18,0.0,-1.0));
#438=DIRECTION('',(-1.0,0.0,6.62819716194123E-18));
#439=DIRECTION('',(-6.62819716194123E-18,0.0,-1.0));
#440=DIRECTION('',(-1.0,0.0,0.0));
#441=DIRECTION('',(-6.62819716194123E-18,0.0,-1.0));
#442=DIRECTION('',(-1.0,0.0,6.93889390390723E-18));
#443=DIRECTION('',(-6.62819716194123E-18,0.0,-1.0));
#444=DIRECTION('',(-1.0,0.0,0.0));
#445=DIRECTION('',(-6.62819716194123E-18,0.0,-1.0));
#446=DIRECTION('',(-1.0,0.0,6.62819716194123E-18));
#447=DIRECTION('',(-6.62819716194123E-18,0.0,-1.0));
#448=DIRECTION('',(-1.0,0.0,0.0));
#449=DIRECTION('',(-6.62819716194123E-18,0.0,-1.0));
#450=DIRECTION('',(-1.0,0.0,6.93889390390723E-18));
#451=DIRECTION('',(-6.62819716194123E-18,0.0,-1.0));
#452=DIRECTION('',(-1.0,0.0,0.0));
#453=DIRECTION('',(-6.62819716194123E-18,0.0,-1.0));
#454=DIRECTION('',(-1.0,0.0,6.62819716194123E-18));
#455=DIRECTION('',(-6.62819716194123E-18,0.0,-1.0));
#456=DIRECTION('',(-1.0,0.0,0.0));
#457=DIRECTION('',(-6.62819716194123E-18,0.0,-1.0));
#458=DIRECTION('',(-1.0,0.0,3.14724602936526E-17));
#459=DIRECTION('',(-6.62819716194123E-18,0.0,-1.0));
#460=DIRECTION('',(-1.0,0.0,0.0));
#461=DIRECTION('',(6.62819716194123E-18,0.0,1.0));
#462=DIRECTION('',(1.0,0.0,-6.93889390390723E-18));
#463=DIRECTION('',(-6.62819716194123E-18,0.0,-1.0));
#464=DIRECTION('',(-1.0,0.0,0.0));
#465=DIRECTION('',(-6.62819716194123E-18,0.0,-1.0));
#466=DIRECTION('',(-1.0,0.0,6.62819716194123E-18));
#467=DIRECTION('',(-6.62819716194123E-18,0.0,-1.0));
#468=DIRECTION('',(-1.0,0.0,0.0));
#469=DIRECTION('',(-6.62819716194123E-18,0.0,-1.0));
#470=DIRECTION('',(-1.0,0.0,6.93889390390723E-18));
#471=DIRECTION('',(-6.62819716194123E-18,0.0,-1.0));
#472=DIRECTION('',(-1.0,0.0,0.0));
#473=DIRECTION('',(6.62819716194123E-18,0.0,1.0));
#474=DIRECTION('',(1.0,0.0,-3.15352069352258E-17));
#475=DIRECTION('',(-6.62819716194123E-18,0.0,-1.0));
#476=DIRECTION('',(-1.0,0.0,9.43184325951657E-18));
#477=DIRECTION('',(-6.62819716194123E-18,0.0,-1.0));
#478=DIRECTION('',(-1.0,0.0,6.62819716194123E-18));
#479=DIRECTION('',(-6.62819716194123E-18,0.0,-1.0));
#480=DIRECTION('',(-1.0,0.0,0.0));
#481=DIRECTION('',(6.62819716194123E-18,0.0,1.0));
#482=DIRECTION('',(1.0,0.0,-6.72205346941013E-18));
#483=DIRECTION('',(-6.62819716194123E-18,0.0,-1.0));
#484=DIRECTION('',(-1.0,0.0,6.96116964677691E-18));
#485=DIRECTION('',(-6.62819716194123E-18,0.0,-1.0));
#486=DIRECTION('',(-1.0,0.0,6.62819716194123E-18));
#487=DIRECTION('',(-6.62819716194123E-18,0.0,-1.0));
#488=DIRECTION('',(-1.0,0.0,6.62819716194125E-18));
#489=DIRECTION('',(6.62819716194123E-18,0.0,1.0));
#490=DIRECTION('',(1.0,0.0,2.92338815379695E-17));
#491=DIRECTION('',(-6.62819716194123E-18,0.0,-1.0));
#492=DIRECTION('',(-1.0,0.0,0.0));
#493=DIRECTION('',(-6.62819716194123E-18,0.0,-1.0));
#494=DIRECTION('',(-1.0,0.0,-2.10589855098351E-17));
#495=DIRECTION('',(-6.62819716194123E-18,0.0,-1.0));
#496=DIRECTION('',(-1.0,0.0,0.0));
#497=DIRECTION('',(-6.62819716194123E-18,0.0,-1.0));
#498=DIRECTION('',(-1.0,0.0,0.0));
#499=DIRECTION('',(6.62819716194123E-18,0.0,1.0));
#500=DIRECTION('',(1.0,0.0,-6.93889390390723E-18));
#501=DIRECTION('',(-6.62819716194123E-18,0.0,-1.0));
#502=DIRECTION('',(-1.0,0.0,0.0));
#503=DIRECTION('',(-6.62819716194123E-18,0.0,-1.0));
#504=DIRECTION('',(-1.0,0.0,0.0));
#505=DIRECTION('',(-6.62819716194123E-18,0.0,-1.0));
#506=DIRECTION('',(-1.0,0.0,0.0));
#507=DIRECTION('',(-6.62819716194123E-18,0.0,-1.0));
#508=DIRECTION('',(-1.0,0.0,0.0));
#509=DIRECTION('',(-6.62819716194123E-18,0.0,-1.0));
#510=DIRECTION('',(-1.0,0.0,0.0));
#511=DIRECTION('',(-6.62819716194123E-18,0.0,-1.0));
#512=DIRECTION('',(-1.0,0.0,6.62819716194123E-18));
#513=DIRECTION('',(-6.62819716194123E-18,0.0,-1.0));
#514=DIRECTION('',(-1.0,0.0,0.0));
#515=DIRECTION('',(-6.62819716194123E-18,0.0,-1.0));
#516=DIRECTION('',(-1.0,0.0,6.93889390390723E-18));
#517=DIRECTION('',(-6.62819716194123E-18,0.0,-1.0));
#518=DIRECTION('',(-1.0,0.0,0.0));
#519=DIRECTION('',(6.62819716194123E-18,0.0,1.0));
#520=DIRECTION('',(1.0,0.0,-5.50160071667569E-17));
#521=DIRECTION('',(-6.62819716194123E-18,0.0,-1.0));
#522=DIRECTION('',(-1.0,0.0,0.0));
#523=DIRECTION('',(-6.62819716194123E-18,0.0,-1.0));
#524=DIRECTION('',(-1.0,0.0,6.62819716194123E-18));
#525=DIRECTION('',(-6.62819716194123E-18,0.0,-1.0));
#526=DIRECTION('',(-1.0,0.0,0.0));
#527=DIRECTION('',(6.62819716194123E-18,0.0,1.0));
#528=DIRECTION('',(1.0,0.0,-6.93889390390723E-18));
#529=DIRECTION('',(-6.62819716194123E-18,0.0,-1.0));
#530=DIRECTION('',(-1.0,0.0,0.0));
#531=DIRECTION('',(-6.62819716194123E-18,0.0,-1.0));
#532=DIRECTION('',(-1.0,0.0,6.62819716194123E-18));
#533=DIRECTION('',(6.62819716194123E-18,0.0,1.0));
#534=DIRECTION('',(1.0,0.0,-6.93889390390723E-18));
#535=CARTESIAN_POINT('',(0.0,0.0,0.0));
#536=CARTESIAN_POINT('',(-3.44666252420944E-16,0.0,-52.0));
#537=CARTESIAN_POINT('',(-3.897,0.0,-52.0));
#538=CARTESIAN_POINT('',(-4.10948224040357E-16,0.0,-62.0));
#539=CARTESIAN_POINT('',(-3.89699999999999,0.0,-62.0));
#540=CARTESIAN_POINT('',(0.0,0.0,0.0));
#541=CARTESIAN_POINT('',(-3.44666252420944E-16,0.0,-52.0));
#542=CARTESIAN_POINT('',(-8.0,0.0,-52.0));
#543=CARTESIAN_POINT('',(-1.33285249854013,3.66198214320268,-52.0));
#544=CARTESIAN_POINT('',(-2.71756083639591E-16,0.0,-41.0));
#545=CARTESIAN_POINT('',(-8.0,0.0,-41.0));
#546=CARTESIAN_POINT('',(0.0,0.0,0.0));
#547=CARTESIAN_POINT('',(-2.71756083639591E-16,0.0,-41.0));
#548=CARTESIAN_POINT('',(-15.9,0.0,-41.0));
#549=CARTESIAN_POINT('',(-2.73616114660535,7.51754096628727,-41.0));
#550=CARTESIAN_POINT('',(-2.05474112020178E-16,0.0,-31.0));
#551=CARTESIAN_POINT('',(-15.9,0.0,-31.0));
#552=CARTESIAN_POINT('',(0.0,0.0,0.0));
#553=CARTESIAN_POINT('',(-2.05474112020178E-16,0.0,-31.0));
#554=CARTESIAN_POINT('',(-16.0,0.0,-31.0));
#555=CARTESIAN_POINT('',(-5.43812027887813,14.9411126704959,-31.0));
#556=CARTESIAN_POINT('',(-1.45820337562707E-16,0.0,-22.0));
#557=CARTESIAN_POINT('',(-16.0,0.0,-22.0));
#558=CARTESIAN_POINT('',(0.0,0.0,0.0));
#559=CARTESIAN_POINT('',(-1.45820337562707E-16,0.0,-22.0));
#560=CARTESIAN_POINT('',(-22.99025,0.0,-22.0));
#561=CARTESIAN_POINT('',(-5.4723222932107,15.0350819325745,-22.0));
#562=CARTESIAN_POINT('',(-1.16762391909333E-16,0.0,-17.616010667241));
#563=CARTESIAN_POINT('',(-22.99025,0.0,-17.616010667241));
#564=CARTESIAN_POINT('',(0.0,0.0,0.0));
#565=CARTESIAN_POINT('',(-1.03399875726283E-16,0.0,-15.6));
#566=CARTESIAN_POINT('',(-19.4807573239311,0.0,-15.6));
#567=CARTESIAN_POINT('',(-1.16762391909333E-16,0.0,-17.616010667241));
#568=CARTESIAN_POINT('',(-1.03399875726283E-16,0.0,-15.6));
#569=CARTESIAN_POINT('',(-19.0,0.0,-15.6));
#570=CARTESIAN_POINT('',(-6.6628114120235,18.3059239046191,-15.6));
#571=CARTESIAN_POINT('',(-7.68870870785183E-17,0.0,-11.6));
#572=CARTESIAN_POINT('',(-19.0,0.0,-11.6));
#573=CARTESIAN_POINT('',(0.0,0.0,0.0));
#574=CARTESIAN_POINT('',(-7.68870870785183E-17,0.0,-11.6));
#575=CARTESIAN_POINT('',(-19.480757323931,0.0,-11.6));
#576=CARTESIAN_POINT('',(-6.4983827231877,17.8541597949323,-11.6));
#577=CARTESIAN_POINT('',(-6.35245708954684E-17,0.0,-9.58398933275902));
#578=CARTESIAN_POINT('',(-22.99025,0.0,-9.58398933275902));
#579=CARTESIAN_POINT('',(-7.68870870785183E-17,0.0,-11.6));
#580=CARTESIAN_POINT('',(-6.62819716194123E-18,0.0,-1.0));
#581=CARTESIAN_POINT('',(-22.99025,0.0,-1.0));
#582=CARTESIAN_POINT('',(0.0,0.0,0.0));
#583=CARTESIAN_POINT('',(-6.62819716194123E-18,0.0,-1.0));
#584=CARTESIAN_POINT('',(-15.575,0.0,-1.0));
#585=CARTESIAN_POINT('',(-7.86312860009295,21.6037682750232,-1.0));
#586=CARTESIAN_POINT('',(-2.83981396953601E-18,0.0,-0.428444402022631));
#587=CARTESIAN_POINT('',(-15.575,0.0,-0.428444402022631));
#588=CARTESIAN_POINT('',(0.0,0.0,0.0));
#589=CARTESIAN_POINT('',(2.25736717369186E-32,0.0,3.40570311736281E-15));
#590=CARTESIAN_POINT('',(-15.875,0.0,3.51092574730863E-15));
#591=CARTESIAN_POINT('',(-2.83981396953601E-18,0.0,-0.428444402022631));
#592=CARTESIAN_POINT('',(3.1796893549572E-16,0.0,47.9721601103663));
#593=CARTESIAN_POINT('',(-8.87840012107731,0.0,47.9721601103663));
#594=CARTESIAN_POINT('',(2.25736717369186E-32,0.0,3.40570311736281E-15));
#595=CARTESIAN_POINT('',(3.20804742637956E-16,0.0,48.4));
#596=CARTESIAN_POINT('',(-8.3836346024001,0.0,48.4));
#597=CARTESIAN_POINT('',(4.33680868994202E-16,0.0,47.9));
#598=CARTESIAN_POINT('',(-2.13993453175288,5.87942180510223,48.4));
#599=CARTESIAN_POINT('',(-4.44089209850063E-16,0.0,-67.0));
#600=CARTESIAN_POINT('',(-5.99999999999998,0.0,-67.0));
#601=CARTESIAN_POINT('',(5.32907051820075E-15,-1.59872115546023E-14,-67.0));
#602=CARTESIAN_POINT('',(-4.40775111269092E-16,0.0,-66.5));
#603=CARTESIAN_POINT('',(-6.49999999999998,0.0,-66.5));
#604=CARTESIAN_POINT('',(-4.33680868994202E-16,0.0,-66.5));
#605=CARTESIAN_POINT('',(-4.10948224040356E-16,0.0,-62.0));
#606=CARTESIAN_POINT('',(-6.49999999999999,0.0,-62.0));
#607=CARTESIAN_POINT('',(0.0,0.0,0.0));
#608=CARTESIAN_POINT('',(-4.10948224040356E-16,0.0,-62.0));
#609=CARTESIAN_POINT('',(-8.99999999999999,0.0,-62.0));
#610=CARTESIAN_POINT('',(-2.22313093161684,6.1080020351084,-62.0));
#611=CARTESIAN_POINT('',(-4.04320026878415E-16,0.0,-61.0));
#612=CARTESIAN_POINT('',(-10.0,0.0,-61.0));
#613=CARTESIAN_POINT('',(-4.10948224040356E-16,0.0,-62.0));
#614=CARTESIAN_POINT('',(-3.7780723823065E-16,0.0,-57.0));
#615=CARTESIAN_POINT('',(-9.99999999999999,0.0,-57.0));
#616=CARTESIAN_POINT('',(0.0,0.0,0.0));
#617=CARTESIAN_POINT('',(-3.7780723823065E-16,0.0,-57.0));
#618=CARTESIAN_POINT('',(-4.49999999999999,0.0,-57.0));
#619=CARTESIAN_POINT('',(-3.42020143325668,9.39692620785907,-57.0));
#620=CARTESIAN_POINT('',(-4.10948224040357E-16,0.0,-62.0));
#621=CARTESIAN_POINT('',(-4.49999999999999,0.0,-62.0));
#622=CARTESIAN_POINT('',(0.0,0.0,0.0));
#623=CARTESIAN_POINT('',(-1.53909064496551,4.22861679353658,-62.0));
#624=MECHANICAL_DESIGN_GEOMETRIC_PRESENTATION_REPRESENTATION('',(#24),#625);
#625=(GEOMETRIC_REPRESENTATION_CONTEXT(3)GLOBAL_UNCERTAINTY_ASSIGNED_CONTEXT((#626))
     GLOBAL_UNIT_ASSIGNED_CONTEXT((#632,#628,#627))REPRESENTATION_CONTEXT('392','TOP_LEVEL_ASSEMBLY_PART'));
#626=UNCERTAINTY_MEASURE_WITH_UNIT(LENGTH_MEASURE(2.0E-5),#632,'DISTANCE_ACCURACY_VALUE',
     'Maximum Tolerance applied to model');
#627=(NAMED_UNIT(*)SI_UNIT($,.STERADIAN.)SOLID_ANGLE_UNIT());
#628=(CONVERSION_BASED_UNIT('DEGREE',#630)NAMED_UNIT(*)PLANE_ANGLE_UNIT());
#629=DIMENSIONAL_EXPONENTS(0.0,0.0,0.0,0.0,0.0,0.0,0.0);
#630=PLANE_ANGLE_MEASURE_WITH_UNIT(PLANE_ANGLE_MEASURE(0.0174532925),#631);
#631=(NAMED_UNIT(*)PLANE_ANGLE_UNIT()SI_UNIT($,.RADIAN.));
#632=(LENGTH_UNIT()NAMED_UNIT(*)SI_UNIT(.MILLI.,.METRE.));
#633=CARTESIAN_POINT('',(0.0,0.0,0.0));
#634=DIRECTION('',(0.0,0.0,1.0));
#635=DIRECTION('',(1.0,0.0,0.0));
#636=AXIS2_PLACEMENT_3D('PCS',#633,#634,#635);
#637=CARTESIAN_POINT('',(0.0,0.0,0.0));
#638=DIRECTION('',(0.0,0.0,1.0));
#639=DIRECTION('',(1.0,0.0,0.0));
#640=AXIS2_PLACEMENT_3D('MCS',#637,#638,#639);
#641=CARTESIAN_POINT('',(0.0,0.0,-40.0));
#642=DIRECTION('',(0.0,0.0,1.0));
#643=DIRECTION('',(1.0,0.0,0.0));
#644=AXIS2_PLACEMENT_3D('CSW',#641,#642,#643);
#645=CONSTRUCTIVE_GEOMETRY_REPRESENTATION('supplemental geometry',(#636,#640,#644),
     #625);
#646=CONSTRUCTIVE_GEOMETRY_REPRESENTATION_RELATIONSHIP('supplemental geometry',$,
     #22,#645);
ENDSEC;
END-ISO-10303-21;
