ISO-10303-21;
HEADER;
FILE_DESCRIPTION(
/* description */ ('3-D model version:1'),
/* implementation_level */ '2;1');
FILE_NAME(
/* name */ '392.54023-4020070',
/* time_stamp */ '2016-12-02T13:59:08',
/* author */ ('InteractiveCad'),
/* organization */ ('AB Sandvik Coromant'),
/* preprocessor_version */ 'ST-DEVELOPER v11',
/* originating_system */ 'SIEMENS UGS NX 6.0',
/* authorization */ '');
FILE_SCHEMA(('AUTOMOTIVE_DESIGN'));
ENDSEC;
DATA;
#10=SHAPE_REPRESENTATION_RELATIONSHIP('None','relationship between 392.54023_4020070_635176191535369540_1_stp-None a\X\0Dnd 392.54023_4020070_635176191535369540_1_stp-None',
     #22,#11);
#11=ADVANCED_BREP_SHAPE_REPRESENTATION('392.54023_4020070_635176191535369540_1_stp-None',
     (#32),#465);
#12=SHAPE_DEFINITION_REPRESENTATION(#13,#22);
#13=PRODUCT_DEFINITION_SHAPE('','',#14);
#14=PRODUCT_DEFINITION(' ','',#16,#15);
#15=PRODUCT_DEFINITION_CONTEXT('part definition',#21,'design');
#16=PRODUCT_DEFINITION_FORMATION_WITH_SPECIFIED_SOURCE(' ',' ',#18,.NOT_KNOWN.);
#17=PRODUCT_RELATED_PRODUCT_CATEGORY('part','',(#18));
#18=PRODUCT('392.54023_4020070_635176191535369540_1_stp','392.54023_4020070_635176191535369540_1_stp',
     ' ',(#19));
#19=PRODUCT_CONTEXT(' ',#21,'mechanical');
#20=APPLICATION_PROTOCOL_DEFINITION('international standard','automotive_design',
     2001,#21);
#21=APPLICATION_CONTEXT('core data for automotive mechanical design processes');
#22=SHAPE_REPRESENTATION('392.54023_4020070_635176191535369540_1_stp-None',(#267),
     #465);
#23=PRESENTATION_LAYER_ASSIGNMENT('1','Layer 1',(#32));
#24=STYLED_ITEM('',(#25),#32);
#25=PRESENTATION_STYLE_ASSIGNMENT((#26));
#26=SURFACE_STYLE_USAGE(.BOTH.,#27);
#27=SURFACE_SIDE_STYLE('',(#28));
#28=SURFACE_STYLE_FILL_AREA(#29);
#29=FILL_AREA_STYLE('',(#30));
#30=FILL_AREA_STYLE_COLOUR('',#31);
#31=COLOUR_RGB('TLS_NOCUT',0.499992370489052,0.499992370489052,0.499992370489052);
#32=MANIFOLD_SOLID_BREP('NOCUT',#33);
#33=CLOSED_SHELL('',(#90,#91,#92,#93,#94,#95,#96,#97,#98,#99,#100,#101,#102,#103,
     #104,#105,#106,#107,#108,#109,#110,#111));
#34=TOROIDAL_SURFACE('',#277,26.0,1.0);
#35=TOROIDAL_SURFACE('',#281,26.0,1.0);
#36=TOROIDAL_SURFACE('',#285,30.75,1.0);
#37=TOROIDAL_SURFACE('',#301,30.75,1.0);
#38=CYLINDRICAL_SURFACE('',#273,26.0);
#39=CYLINDRICAL_SURFACE('',#279,25.0);
#40=CYLINDRICAL_SURFACE('',#287,31.75);
#41=CYLINDRICAL_SURFACE('',#293,28.0);
#42=CYLINDRICAL_SURFACE('',#299,31.75);
#43=CYLINDRICAL_SURFACE('',#305,21.925);
#44=CONICAL_SURFACE('',#271,21.0,45.0);
#45=CONICAL_SURFACE('',#275,26.0,29.9999999999999);
#46=CONICAL_SURFACE('',#289,31.75,60.0000000000001);
#47=CONICAL_SURFACE('',#297,28.9841978045701,59.9999999999998);
#48=CONICAL_SURFACE('',#307,21.925,35.0000000000001);
#49=CONICAL_SURFACE('',#309,22.225,8.29722000000016);
#50=FACE_BOUND('',#121,.T.);
#51=FACE_BOUND('',#122,.T.);
#52=FACE_BOUND('',#123,.T.);
#53=FACE_BOUND('',#124,.T.);
#54=FACE_BOUND('',#125,.T.);
#55=FACE_BOUND('',#126,.T.);
#56=FACE_BOUND('',#127,.T.);
#57=FACE_BOUND('',#128,.T.);
#58=FACE_BOUND('',#129,.T.);
#59=FACE_BOUND('',#130,.T.);
#60=FACE_BOUND('',#131,.T.);
#61=FACE_BOUND('',#132,.T.);
#62=FACE_BOUND('',#133,.T.);
#63=FACE_BOUND('',#134,.T.);
#64=FACE_BOUND('',#135,.T.);
#65=FACE_BOUND('',#136,.T.);
#66=FACE_BOUND('',#137,.T.);
#67=FACE_BOUND('',#138,.T.);
#68=FACE_BOUND('',#139,.T.);
#69=FACE_BOUND('',#140,.T.);
#70=FACE_BOUND('',#141,.T.);
#71=FACE_BOUND('',#142,.T.);
#72=FACE_BOUND('',#143,.T.);
#73=FACE_BOUND('',#144,.T.);
#74=FACE_BOUND('',#145,.T.);
#75=FACE_BOUND('',#146,.T.);
#76=FACE_BOUND('',#147,.T.);
#77=FACE_BOUND('',#148,.T.);
#78=FACE_BOUND('',#149,.T.);
#79=FACE_BOUND('',#150,.T.);
#80=FACE_BOUND('',#151,.T.);
#81=FACE_BOUND('',#152,.T.);
#82=FACE_BOUND('',#153,.T.);
#83=FACE_BOUND('',#154,.T.);
#84=FACE_BOUND('',#155,.T.);
#85=FACE_BOUND('',#156,.T.);
#86=FACE_BOUND('',#157,.T.);
#87=FACE_BOUND('',#158,.T.);
#88=FACE_BOUND('',#159,.T.);
#89=FACE_BOUND('',#160,.T.);
#90=ADVANCED_FACE('',(#118),#112,.F.);
#91=ADVANCED_FACE('',(#50,#51),#44,.T.);
#92=ADVANCED_FACE('',(#52,#53),#38,.T.);
#93=ADVANCED_FACE('',(#54,#55),#45,.T.);
#94=ADVANCED_FACE('',(#56,#57),#34,.F.);
#95=ADVANCED_FACE('',(#58,#59),#39,.T.);
#96=ADVANCED_FACE('',(#60,#61),#35,.F.);
#97=ADVANCED_FACE('',(#62,#63),#113,.F.);
#98=ADVANCED_FACE('',(#64,#65),#36,.T.);
#99=ADVANCED_FACE('',(#66,#67),#40,.T.);
#100=ADVANCED_FACE('',(#68,#69),#46,.T.);
#101=ADVANCED_FACE('',(#70,#71),#114,.F.);
#102=ADVANCED_FACE('',(#72,#73),#41,.T.);
#103=ADVANCED_FACE('',(#74,#75),#115,.F.);
#104=ADVANCED_FACE('',(#76,#77),#47,.T.);
#105=ADVANCED_FACE('',(#78,#79),#42,.T.);
#106=ADVANCED_FACE('',(#80,#81),#37,.T.);
#107=ADVANCED_FACE('',(#82,#83),#116,.F.);
#108=ADVANCED_FACE('',(#84,#85),#43,.T.);
#109=ADVANCED_FACE('',(#86,#87),#48,.T.);
#110=ADVANCED_FACE('',(#88,#89),#49,.T.);
#111=ADVANCED_FACE('',(#119),#117,.F.);
#112=PLANE('',#269);
#113=PLANE('',#283);
#114=PLANE('',#291);
#115=PLANE('',#295);
#116=PLANE('',#303);
#117=PLANE('',#310);
#118=FACE_OUTER_BOUND('',#120,.T.);
#119=FACE_OUTER_BOUND('',#161,.T.);
#120=EDGE_LOOP('',(#162));
#121=EDGE_LOOP('',(#163));
#122=EDGE_LOOP('',(#164));
#123=EDGE_LOOP('',(#165));
#124=EDGE_LOOP('',(#166));
#125=EDGE_LOOP('',(#167));
#126=EDGE_LOOP('',(#168));
#127=EDGE_LOOP('',(#169));
#128=EDGE_LOOP('',(#170));
#129=EDGE_LOOP('',(#171));
#130=EDGE_LOOP('',(#172));
#131=EDGE_LOOP('',(#173));
#132=EDGE_LOOP('',(#174));
#133=EDGE_LOOP('',(#175));
#134=EDGE_LOOP('',(#176));
#135=EDGE_LOOP('',(#177));
#136=EDGE_LOOP('',(#178));
#137=EDGE_LOOP('',(#179));
#138=EDGE_LOOP('',(#180));
#139=EDGE_LOOP('',(#181));
#140=EDGE_LOOP('',(#182));
#141=EDGE_LOOP('',(#183));
#142=EDGE_LOOP('',(#184));
#143=EDGE_LOOP('',(#185));
#144=EDGE_LOOP('',(#186));
#145=EDGE_LOOP('',(#187));
#146=EDGE_LOOP('',(#188));
#147=EDGE_LOOP('',(#189));
#148=EDGE_LOOP('',(#190));
#149=EDGE_LOOP('',(#191));
#150=EDGE_LOOP('',(#192));
#151=EDGE_LOOP('',(#193));
#152=EDGE_LOOP('',(#194));
#153=EDGE_LOOP('',(#195));
#154=EDGE_LOOP('',(#196));
#155=EDGE_LOOP('',(#197));
#156=EDGE_LOOP('',(#198));
#157=EDGE_LOOP('',(#199));
#158=EDGE_LOOP('',(#200));
#159=EDGE_LOOP('',(#201));
#160=EDGE_LOOP('',(#202));
#161=EDGE_LOOP('',(#203));
#162=ORIENTED_EDGE('',*,*,#225,.F.);
#163=ORIENTED_EDGE('',*,*,#226,.F.);
#164=ORIENTED_EDGE('',*,*,#225,.T.);
#165=ORIENTED_EDGE('',*,*,#227,.F.);
#166=ORIENTED_EDGE('',*,*,#226,.T.);
#167=ORIENTED_EDGE('',*,*,#228,.F.);
#168=ORIENTED_EDGE('',*,*,#227,.T.);
#169=ORIENTED_EDGE('',*,*,#229,.F.);
#170=ORIENTED_EDGE('',*,*,#228,.T.);
#171=ORIENTED_EDGE('',*,*,#230,.F.);
#172=ORIENTED_EDGE('',*,*,#229,.T.);
#173=ORIENTED_EDGE('',*,*,#231,.F.);
#174=ORIENTED_EDGE('',*,*,#230,.T.);
#175=ORIENTED_EDGE('',*,*,#232,.F.);
#176=ORIENTED_EDGE('',*,*,#231,.T.);
#177=ORIENTED_EDGE('',*,*,#233,.F.);
#178=ORIENTED_EDGE('',*,*,#232,.T.);
#179=ORIENTED_EDGE('',*,*,#234,.F.);
#180=ORIENTED_EDGE('',*,*,#233,.T.);
#181=ORIENTED_EDGE('',*,*,#235,.F.);
#182=ORIENTED_EDGE('',*,*,#234,.T.);
#183=ORIENTED_EDGE('',*,*,#236,.F.);
#184=ORIENTED_EDGE('',*,*,#235,.T.);
#185=ORIENTED_EDGE('',*,*,#237,.F.);
#186=ORIENTED_EDGE('',*,*,#236,.T.);
#187=ORIENTED_EDGE('',*,*,#238,.F.);
#188=ORIENTED_EDGE('',*,*,#237,.T.);
#189=ORIENTED_EDGE('',*,*,#239,.F.);
#190=ORIENTED_EDGE('',*,*,#238,.T.);
#191=ORIENTED_EDGE('',*,*,#240,.F.);
#192=ORIENTED_EDGE('',*,*,#239,.T.);
#193=ORIENTED_EDGE('',*,*,#241,.F.);
#194=ORIENTED_EDGE('',*,*,#240,.T.);
#195=ORIENTED_EDGE('',*,*,#242,.F.);
#196=ORIENTED_EDGE('',*,*,#241,.T.);
#197=ORIENTED_EDGE('',*,*,#243,.F.);
#198=ORIENTED_EDGE('',*,*,#242,.T.);
#199=ORIENTED_EDGE('',*,*,#244,.F.);
#200=ORIENTED_EDGE('',*,*,#243,.T.);
#201=ORIENTED_EDGE('',*,*,#245,.F.);
#202=ORIENTED_EDGE('',*,*,#244,.T.);
#203=ORIENTED_EDGE('',*,*,#245,.T.);
#204=VERTEX_POINT('',#401);
#205=VERTEX_POINT('',#404);
#206=VERTEX_POINT('',#407);
#207=VERTEX_POINT('',#410);
#208=VERTEX_POINT('',#413);
#209=VERTEX_POINT('',#416);
#210=VERTEX_POINT('',#419);
#211=VERTEX_POINT('',#422);
#212=VERTEX_POINT('',#425);
#213=VERTEX_POINT('',#428);
#214=VERTEX_POINT('',#431);
#215=VERTEX_POINT('',#434);
#216=VERTEX_POINT('',#437);
#217=VERTEX_POINT('',#440);
#218=VERTEX_POINT('',#443);
#219=VERTEX_POINT('',#446);
#220=VERTEX_POINT('',#449);
#221=VERTEX_POINT('',#452);
#222=VERTEX_POINT('',#455);
#223=VERTEX_POINT('',#458);
#224=VERTEX_POINT('',#461);
#225=EDGE_CURVE('',#204,#204,#246,.T.);
#226=EDGE_CURVE('',#205,#205,#247,.T.);
#227=EDGE_CURVE('',#206,#206,#248,.T.);
#228=EDGE_CURVE('',#207,#207,#249,.T.);
#229=EDGE_CURVE('',#208,#208,#250,.T.);
#230=EDGE_CURVE('',#209,#209,#251,.T.);
#231=EDGE_CURVE('',#210,#210,#252,.T.);
#232=EDGE_CURVE('',#211,#211,#253,.T.);
#233=EDGE_CURVE('',#212,#212,#254,.T.);
#234=EDGE_CURVE('',#213,#213,#255,.T.);
#235=EDGE_CURVE('',#214,#214,#256,.T.);
#236=EDGE_CURVE('',#215,#215,#257,.T.);
#237=EDGE_CURVE('',#216,#216,#258,.T.);
#238=EDGE_CURVE('',#217,#217,#259,.T.);
#239=EDGE_CURVE('',#218,#218,#260,.T.);
#240=EDGE_CURVE('',#219,#219,#261,.T.);
#241=EDGE_CURVE('',#220,#220,#262,.T.);
#242=EDGE_CURVE('',#221,#221,#263,.T.);
#243=EDGE_CURVE('',#222,#222,#264,.T.);
#244=EDGE_CURVE('',#223,#223,#265,.T.);
#245=EDGE_CURVE('',#224,#224,#266,.T.);
#246=CIRCLE('',#268,21.0);
#247=CIRCLE('',#270,26.0);
#248=CIRCLE('',#272,26.0);
#249=CIRCLE('',#274,25.1339745962156);
#250=CIRCLE('',#276,25.0);
#251=CIRCLE('',#278,25.0);
#252=CIRCLE('',#280,26.0);
#253=CIRCLE('',#282,30.75);
#254=CIRCLE('',#284,31.75);
#255=CIRCLE('',#286,31.75);
#256=CIRCLE('',#288,28.9841978045701);
#257=CIRCLE('',#290,28.0);
#258=CIRCLE('',#292,28.0);
#259=CIRCLE('',#294,28.9841978045701);
#260=CIRCLE('',#296,31.75);
#261=CIRCLE('',#298,31.75);
#262=CIRCLE('',#300,30.75);
#263=CIRCLE('',#302,21.925);
#264=CIRCLE('',#304,21.925);
#265=CIRCLE('',#306,22.225);
#266=CIRCLE('',#308,12.2717837242416);
#267=AXIS2_PLACEMENT_3D('',#399,#311,#312);
#268=AXIS2_PLACEMENT_3D('',#400,#313,#314);
#269=AXIS2_PLACEMENT_3D('',#402,#315,#316);
#270=AXIS2_PLACEMENT_3D('',#403,#317,#318);
#271=AXIS2_PLACEMENT_3D('',#405,#319,#320);
#272=AXIS2_PLACEMENT_3D('',#406,#321,#322);
#273=AXIS2_PLACEMENT_3D('',#408,#323,#324);
#274=AXIS2_PLACEMENT_3D('',#409,#325,#326);
#275=AXIS2_PLACEMENT_3D('',#411,#327,#328);
#276=AXIS2_PLACEMENT_3D('',#412,#329,#330);
#277=AXIS2_PLACEMENT_3D('',#414,#331,#332);
#278=AXIS2_PLACEMENT_3D('',#415,#333,#334);
#279=AXIS2_PLACEMENT_3D('',#417,#335,#336);
#280=AXIS2_PLACEMENT_3D('',#418,#337,#338);
#281=AXIS2_PLACEMENT_3D('',#420,#339,#340);
#282=AXIS2_PLACEMENT_3D('',#421,#341,#342);
#283=AXIS2_PLACEMENT_3D('',#423,#343,#344);
#284=AXIS2_PLACEMENT_3D('',#424,#345,#346);
#285=AXIS2_PLACEMENT_3D('',#426,#347,#348);
#286=AXIS2_PLACEMENT_3D('',#427,#349,#350);
#287=AXIS2_PLACEMENT_3D('',#429,#351,#352);
#288=AXIS2_PLACEMENT_3D('',#430,#353,#354);
#289=AXIS2_PLACEMENT_3D('',#432,#355,#356);
#290=AXIS2_PLACEMENT_3D('',#433,#357,#358);
#291=AXIS2_PLACEMENT_3D('',#435,#359,#360);
#292=AXIS2_PLACEMENT_3D('',#436,#361,#362);
#293=AXIS2_PLACEMENT_3D('',#438,#363,#364);
#294=AXIS2_PLACEMENT_3D('',#439,#365,#366);
#295=AXIS2_PLACEMENT_3D('',#441,#367,#368);
#296=AXIS2_PLACEMENT_3D('',#442,#369,#370);
#297=AXIS2_PLACEMENT_3D('',#444,#371,#372);
#298=AXIS2_PLACEMENT_3D('',#445,#373,#374);
#299=AXIS2_PLACEMENT_3D('',#447,#375,#376);
#300=AXIS2_PLACEMENT_3D('',#448,#377,#378);
#301=AXIS2_PLACEMENT_3D('',#450,#379,#380);
#302=AXIS2_PLACEMENT_3D('',#451,#381,#382);
#303=AXIS2_PLACEMENT_3D('',#453,#383,#384);
#304=AXIS2_PLACEMENT_3D('',#454,#385,#386);
#305=AXIS2_PLACEMENT_3D('',#456,#387,#388);
#306=AXIS2_PLACEMENT_3D('',#457,#389,#390);
#307=AXIS2_PLACEMENT_3D('',#459,#391,#392);
#308=AXIS2_PLACEMENT_3D('',#460,#393,#394);
#309=AXIS2_PLACEMENT_3D('',#462,#395,#396);
#310=AXIS2_PLACEMENT_3D('',#463,#397,#398);
#311=DIRECTION('',(0.0,0.0,1.0));
#312=DIRECTION('',(1.0,0.0,0.0));
#313=DIRECTION('',(0.0,0.0,1.0));
#314=DIRECTION('',(1.0,0.0,0.0));
#315=DIRECTION('',(0.0,0.0,1.0));
#316=DIRECTION('',(1.0,0.0,0.0));
#317=DIRECTION('',(0.0,0.0,1.0));
#318=DIRECTION('',(1.0,0.0,0.0));
#319=DIRECTION('',(0.0,0.0,1.0));
#320=DIRECTION('',(1.0,0.0,-5.4369393958137E-17));
#321=DIRECTION('',(0.0,0.0,1.0));
#322=DIRECTION('',(1.0,0.0,0.0));
#323=DIRECTION('',(0.0,0.0,1.0));
#324=DIRECTION('',(1.0,0.0,0.0));
#325=DIRECTION('',(0.0,0.0,1.0));
#326=DIRECTION('',(1.0,0.0,0.0));
#327=DIRECTION('',(0.0,0.0,-1.0));
#328=DIRECTION('',(-1.0,0.0,-1.15006062949587E-17));
#329=DIRECTION('',(0.0,0.0,1.0));
#330=DIRECTION('',(1.0,0.0,0.0));
#331=DIRECTION('',(0.0,0.0,1.0));
#332=DIRECTION('',(1.0,0.0,0.0));
#333=DIRECTION('',(0.0,0.0,1.0));
#334=DIRECTION('',(1.0,0.0,0.0));
#335=DIRECTION('',(0.0,0.0,1.0));
#336=DIRECTION('',(1.0,0.0,0.0));
#337=DIRECTION('',(0.0,0.0,1.0));
#338=DIRECTION('',(1.0,0.0,0.0));
#339=DIRECTION('',(0.0,0.0,1.0));
#340=DIRECTION('',(1.0,0.0,0.0));
#341=DIRECTION('',(0.0,0.0,1.0));
#342=DIRECTION('',(1.0,0.0,0.0));
#343=DIRECTION('',(0.0,0.0,1.0));
#344=DIRECTION('',(1.0,0.0,0.0));
#345=DIRECTION('',(0.0,0.0,1.0));
#346=DIRECTION('',(1.0,0.0,0.0));
#347=DIRECTION('',(0.0,0.0,1.0));
#348=DIRECTION('',(1.0,0.0,0.0));
#349=DIRECTION('',(0.0,0.0,1.0));
#350=DIRECTION('',(1.0,0.0,0.0));
#351=DIRECTION('',(0.0,0.0,1.0));
#352=DIRECTION('',(1.0,0.0,0.0));
#353=DIRECTION('',(0.0,0.0,1.0));
#354=DIRECTION('',(1.0,0.0,0.0));
#355=DIRECTION('',(0.0,0.0,-1.0));
#356=DIRECTION('',(-1.0,0.0,-2.16373165879727E-17));
#357=DIRECTION('',(0.0,0.0,1.0));
#358=DIRECTION('',(1.0,0.0,0.0));
#359=DIRECTION('',(0.0,0.0,-1.0));
#360=DIRECTION('',(-1.0,0.0,0.0));
#361=DIRECTION('',(0.0,0.0,1.0));
#362=DIRECTION('',(1.0,0.0,0.0));
#363=DIRECTION('',(0.0,0.0,1.0));
#364=DIRECTION('',(1.0,0.0,0.0));
#365=DIRECTION('',(0.0,0.0,1.0));
#366=DIRECTION('',(1.0,0.0,0.0));
#367=DIRECTION('',(0.0,0.0,1.0));
#368=DIRECTION('',(1.0,0.0,0.0));
#369=DIRECTION('',(0.0,0.0,1.0));
#370=DIRECTION('',(1.0,0.0,0.0));
#371=DIRECTION('',(0.0,0.0,1.0));
#372=DIRECTION('',(1.0,0.0,-2.46264763432251E-17));
#373=DIRECTION('',(0.0,0.0,1.0));
#374=DIRECTION('',(1.0,0.0,0.0));
#375=DIRECTION('',(0.0,0.0,1.0));
#376=DIRECTION('',(1.0,0.0,0.0));
#377=DIRECTION('',(0.0,0.0,1.0));
#378=DIRECTION('',(1.0,0.0,0.0));
#379=DIRECTION('',(0.0,0.0,1.0));
#380=DIRECTION('',(1.0,0.0,0.0));
#381=DIRECTION('',(0.0,0.0,1.0));
#382=DIRECTION('',(1.0,0.0,0.0));
#383=DIRECTION('',(0.0,0.0,-1.0));
#384=DIRECTION('',(-1.0,0.0,0.0));
#385=DIRECTION('',(0.0,0.0,1.0));
#386=DIRECTION('',(1.0,0.0,0.0));
#387=DIRECTION('',(0.0,0.0,1.0));
#388=DIRECTION('',(1.0,0.0,0.0));
#389=DIRECTION('',(0.0,0.0,1.0));
#390=DIRECTION('',(1.0,0.0,0.0));
#391=DIRECTION('',(0.0,0.0,1.0));
#392=DIRECTION('',(1.0,0.0,3.66339025163324E-17));
#393=DIRECTION('',(0.0,0.0,1.0));
#394=DIRECTION('',(1.0,0.0,0.0));
#395=DIRECTION('',(0.0,0.0,-1.0));
#396=DIRECTION('',(-1.0,0.0,-8.25765500397922E-17));
#397=DIRECTION('',(0.0,0.0,-1.0));
#398=DIRECTION('',(-1.0,0.0,0.0));
#399=CARTESIAN_POINT('',(0.0,0.0,0.0));
#400=CARTESIAN_POINT('',(0.0,0.0,-70.0));
#401=CARTESIAN_POINT('',(21.0,0.0,-70.0));
#402=CARTESIAN_POINT('',(-8.66155307595007,5.00075,-70.0));
#403=CARTESIAN_POINT('',(0.0,0.0,-65.0));
#404=CARTESIAN_POINT('',(26.0,0.0,-65.0));
#405=CARTESIAN_POINT('',(0.0,0.0,-70.0));
#406=CARTESIAN_POINT('',(0.0,0.0,-37.25));
#407=CARTESIAN_POINT('',(26.0,0.0,-37.25));
#408=CARTESIAN_POINT('',(0.0,0.0,0.0));
#409=CARTESIAN_POINT('',(0.0,0.0,-35.75));
#410=CARTESIAN_POINT('',(25.1339745962156,0.0,-35.75));
#411=CARTESIAN_POINT('',(0.0,0.0,-37.25));
#412=CARTESIAN_POINT('',(0.0,0.0,-35.25));
#413=CARTESIAN_POINT('',(25.0,0.0,-35.25));
#414=CARTESIAN_POINT('',(0.0,0.0,-35.25));
#415=CARTESIAN_POINT('',(0.0,0.0,-20.05));
#416=CARTESIAN_POINT('',(25.0,0.0,-20.05));
#417=CARTESIAN_POINT('',(0.0,0.0,0.0));
#418=CARTESIAN_POINT('',(0.0,0.0,-19.05));
#419=CARTESIAN_POINT('',(26.0,0.0,-19.05));
#420=CARTESIAN_POINT('',(0.0,0.0,-20.05));
#421=CARTESIAN_POINT('',(0.0,0.0,-19.05));
#422=CARTESIAN_POINT('',(30.75,0.0,-19.05));
#423=CARTESIAN_POINT('',(-22.5166604983954,13.0,-19.05));
#424=CARTESIAN_POINT('',(0.0,0.0,-18.05));
#425=CARTESIAN_POINT('',(31.75,0.0,-18.05));
#426=CARTESIAN_POINT('',(0.0,0.0,-18.05));
#427=CARTESIAN_POINT('',(0.0,0.0,-14.6218366420567));
#428=CARTESIAN_POINT('',(31.75,0.0,-14.6218366420567));
#429=CARTESIAN_POINT('',(0.0,0.0,0.0));
#430=CARTESIAN_POINT('',(0.0,0.0,-13.025));
#431=CARTESIAN_POINT('',(28.9841978045701,0.0,-13.025));
#432=CARTESIAN_POINT('',(0.0,0.0,-14.6218366420567));
#433=CARTESIAN_POINT('',(0.0,0.0,-13.025));
#434=CARTESIAN_POINT('',(28.0,0.0,-13.025));
#435=CARTESIAN_POINT('',(-25.1010516070709,14.4920989022851,-13.025));
#436=CARTESIAN_POINT('',(0.0,0.0,-9.175));
#437=CARTESIAN_POINT('',(28.0,0.0,-9.175));
#438=CARTESIAN_POINT('',(0.0,0.0,0.0));
#439=CARTESIAN_POINT('',(0.0,0.0,-9.175));
#440=CARTESIAN_POINT('',(28.9841978045701,0.0,-9.175));
#441=CARTESIAN_POINT('',(-24.2487113059643,14.0,-9.175));
#442=CARTESIAN_POINT('',(0.0,0.0,-7.57816335794328));
#443=CARTESIAN_POINT('',(31.75,0.0,-7.57816335794328));
#444=CARTESIAN_POINT('',(0.0,0.0,-9.175));
#445=CARTESIAN_POINT('',(0.0,0.0,-2.0));
#446=CARTESIAN_POINT('',(31.75,0.0,-2.0));
#447=CARTESIAN_POINT('',(0.0,0.0,0.0));
#448=CARTESIAN_POINT('',(0.0,0.0,-1.0));
#449=CARTESIAN_POINT('',(30.75,0.0,-1.0));
#450=CARTESIAN_POINT('',(0.0,0.0,-2.0));
#451=CARTESIAN_POINT('',(0.0,0.0,-1.0));
#452=CARTESIAN_POINT('',(21.925,0.0,-1.0));
#453=CARTESIAN_POINT('',(-26.6302811663715,15.375,-1.0));
#454=CARTESIAN_POINT('',(0.0,0.0,-0.428444402022636));
#455=CARTESIAN_POINT('',(21.925,0.0,-0.428444402022636));
#456=CARTESIAN_POINT('',(0.0,0.0,0.0));
#457=CARTESIAN_POINT('',(0.0,0.0,1.38777878078145E-14));
#458=CARTESIAN_POINT('',(22.225,0.0,1.38777878078145E-14));
#459=CARTESIAN_POINT('',(0.0,0.0,-0.428444402022636));
#460=CARTESIAN_POINT('',(0.0,0.0,68.25));
#461=CARTESIAN_POINT('',(12.2717837242416,0.0,68.25));
#462=CARTESIAN_POINT('',(0.0,0.0,1.38777878078145E-14));
#463=CARTESIAN_POINT('',(-7.36511304648476,4.25225,68.25));
#464=MECHANICAL_DESIGN_GEOMETRIC_PRESENTATION_REPRESENTATION('',(#24),#465);
#465=(GEOMETRIC_REPRESENTATION_CONTEXT(3)GLOBAL_UNCERTAINTY_ASSIGNED_CONTEXT((#466))
     GLOBAL_UNIT_ASSIGNED_CONTEXT((#472,#468,#467))REPRESENTATION_CONTEXT('392','TOP_LEVEL_ASSEMBLY_PART'));
#466=UNCERTAINTY_MEASURE_WITH_UNIT(LENGTH_MEASURE(2.0E-5),#472,'DISTANCE_ACCURACY_VALUE',
     'Maximum Tolerance applied to model');
#467=(NAMED_UNIT(*)SI_UNIT($,.STERADIAN.)SOLID_ANGLE_UNIT());
#468=(CONVERSION_BASED_UNIT('DEGREE',#470)NAMED_UNIT(*)PLANE_ANGLE_UNIT());
#469=DIMENSIONAL_EXPONENTS(0.0,0.0,0.0,0.0,0.0,0.0,0.0);
#470=PLANE_ANGLE_MEASURE_WITH_UNIT(PLANE_ANGLE_MEASURE(0.0174532925),#471);
#471=(NAMED_UNIT(*)PLANE_ANGLE_UNIT()SI_UNIT($,.RADIAN.));
#472=(LENGTH_UNIT()NAMED_UNIT(*)SI_UNIT(.MILLI.,.METRE.));
#473=CARTESIAN_POINT('',(0.0,0.0,0.0));
#474=DIRECTION('',(0.0,0.0,1.0));
#475=DIRECTION('',(1.0,0.0,0.0));
#476=AXIS2_PLACEMENT_3D('PCS',#473,#474,#475);
#477=CARTESIAN_POINT('',(0.0,0.0,0.0));
#478=DIRECTION('',(0.0,0.0,1.0));
#479=DIRECTION('',(1.0,0.0,0.0));
#480=AXIS2_PLACEMENT_3D('MCS',#477,#478,#479);
#481=CARTESIAN_POINT('',(0.0,0.0,-70.0));
#482=DIRECTION('',(0.0,0.0,1.0));
#483=DIRECTION('',(1.0,0.0,0.0));
#484=AXIS2_PLACEMENT_3D('CSW',#481,#482,#483);
#485=CONSTRUCTIVE_GEOMETRY_REPRESENTATION('supplemental geometry',(#476,#480,#484),
     #465);
#486=CONSTRUCTIVE_GEOMETRY_REPRESENTATION_RELATIONSHIP('supplemental geometry',$,
     #22,#485);
ENDSEC;
END-ISO-10303-21;
