ISO-10303-21;
HEADER;
FILE_DESCRIPTION(
/* description */ ('3-D model version:1'),
/* implementation_level */ '2;1');
FILE_NAME(
/* name */ '392.54023-4016060',
/* time_stamp */ '2016-12-02T14:02:06',
/* author */ ('InteractiveCad'),
/* organization */ ('AB Sandvik Coromant'),
/* preprocessor_version */ 'ST-DEVELOPER v11',
/* originating_system */ 'SIEMENS UGS NX 6.0',
/* authorization */ '');
FILE_SCHEMA(('AUTOMOTIVE_DESIGN'));
ENDSEC;
DATA;
#10=SHAPE_REPRESENTATION_RELATIONSHIP('None','relationship between 392.54023_4016060_635132725708464916_1_stp-None a\X\0Dnd 392.54023_4016060_635132725708464916_1_stp-None',
     #22,#11);
#11=ADVANCED_BREP_SHAPE_REPRESENTATION('392.54023_4016060_635132725708464916_1_stp-None',
     (#32),#445);
#12=SHAPE_DEFINITION_REPRESENTATION(#13,#22);
#13=PRODUCT_DEFINITION_SHAPE('','',#14);
#14=PRODUCT_DEFINITION(' ','',#16,#15);
#15=PRODUCT_DEFINITION_CONTEXT('part definition',#21,'design');
#16=PRODUCT_DEFINITION_FORMATION_WITH_SPECIFIED_SOURCE(' ',' ',#18,.NOT_KNOWN.);
#17=PRODUCT_RELATED_PRODUCT_CATEGORY('part','',(#18));
#18=PRODUCT('392.54023_4016060_635132725708464916_1_stp','392.54023_4016060_635132725708464916_1_stp',
     ' ',(#19));
#19=PRODUCT_CONTEXT(' ',#21,'mechanical');
#20=APPLICATION_PROTOCOL_DEFINITION('international standard','automotive_design',
     2001,#21);
#21=APPLICATION_CONTEXT('core data for automotive mechanical design processes');
#22=SHAPE_REPRESENTATION('392.54023_4016060_635132725708464916_1_stp-None',(#256),
     #445);
#23=PRESENTATION_LAYER_ASSIGNMENT('1','Layer 1',(#32));
#24=STYLED_ITEM('',(#25),#32);
#25=PRESENTATION_STYLE_ASSIGNMENT((#26));
#26=SURFACE_STYLE_USAGE(.BOTH.,#27);
#27=SURFACE_SIDE_STYLE('',(#28));
#28=SURFACE_STYLE_FILL_AREA(#29);
#29=FILL_AREA_STYLE('',(#30));
#30=FILL_AREA_STYLE_COLOUR('',#31);
#31=COLOUR_RGB('TLS_NOCUT',0.499992370489052,0.499992370489052,0.499992370489052);
#32=MANIFOLD_SOLID_BREP('NOCUT',#33);
#33=CLOSED_SHELL('',(#86,#87,#88,#89,#90,#91,#92,#93,#94,#95,#96,#97,#98,#99,#100,
     #101,#102,#103,#104,#105,#106));
#34=TOROIDAL_SURFACE('',#266,30.75,1.0);
#35=TOROIDAL_SURFACE('',#282,30.75,1.0);
#36=TOROIDAL_SURFACE('',#296,11.4062035801479,1.0);
#37=CYLINDRICAL_SURFACE('',#262,24.0);
#38=CYLINDRICAL_SURFACE('',#268,31.75);
#39=CYLINDRICAL_SURFACE('',#274,28.0);
#40=CYLINDRICAL_SURFACE('',#280,31.75);
#41=CYLINDRICAL_SURFACE('',#290,21.925);
#42=CONICAL_SURFACE('',#260,19.0,45.0);
#43=CONICAL_SURFACE('',#270,31.75,60.0000000000007);
#44=CONICAL_SURFACE('',#278,28.9841978045701,60.0);
#45=CONICAL_SURFACE('',#286,23.9,74.9999999999999);
#46=CONICAL_SURFACE('',#292,21.925,35.0000000000006);
#47=CONICAL_SURFACE('',#294,22.225,8.2979166666668);
#48=FACE_BOUND('',#117,.T.);
#49=FACE_BOUND('',#118,.T.);
#50=FACE_BOUND('',#119,.T.);
#51=FACE_BOUND('',#120,.T.);
#52=FACE_BOUND('',#121,.T.);
#53=FACE_BOUND('',#122,.T.);
#54=FACE_BOUND('',#123,.T.);
#55=FACE_BOUND('',#124,.T.);
#56=FACE_BOUND('',#125,.T.);
#57=FACE_BOUND('',#126,.T.);
#58=FACE_BOUND('',#127,.T.);
#59=FACE_BOUND('',#128,.T.);
#60=FACE_BOUND('',#129,.T.);
#61=FACE_BOUND('',#130,.T.);
#62=FACE_BOUND('',#131,.T.);
#63=FACE_BOUND('',#132,.T.);
#64=FACE_BOUND('',#133,.T.);
#65=FACE_BOUND('',#134,.T.);
#66=FACE_BOUND('',#135,.T.);
#67=FACE_BOUND('',#136,.T.);
#68=FACE_BOUND('',#137,.T.);
#69=FACE_BOUND('',#138,.T.);
#70=FACE_BOUND('',#139,.T.);
#71=FACE_BOUND('',#140,.T.);
#72=FACE_BOUND('',#141,.T.);
#73=FACE_BOUND('',#142,.T.);
#74=FACE_BOUND('',#143,.T.);
#75=FACE_BOUND('',#144,.T.);
#76=FACE_BOUND('',#145,.T.);
#77=FACE_BOUND('',#146,.T.);
#78=FACE_BOUND('',#147,.T.);
#79=FACE_BOUND('',#148,.T.);
#80=FACE_BOUND('',#149,.T.);
#81=FACE_BOUND('',#150,.T.);
#82=FACE_BOUND('',#151,.T.);
#83=FACE_BOUND('',#152,.T.);
#84=FACE_BOUND('',#153,.T.);
#85=FACE_BOUND('',#154,.T.);
#86=ADVANCED_FACE('',(#114),#107,.F.);
#87=ADVANCED_FACE('',(#48,#49),#42,.T.);
#88=ADVANCED_FACE('',(#50,#51),#37,.T.);
#89=ADVANCED_FACE('',(#52,#53),#108,.F.);
#90=ADVANCED_FACE('',(#54,#55),#34,.T.);
#91=ADVANCED_FACE('',(#56,#57),#38,.T.);
#92=ADVANCED_FACE('',(#58,#59),#43,.T.);
#93=ADVANCED_FACE('',(#60,#61),#109,.F.);
#94=ADVANCED_FACE('',(#62,#63),#39,.T.);
#95=ADVANCED_FACE('',(#64,#65),#110,.F.);
#96=ADVANCED_FACE('',(#66,#67),#44,.T.);
#97=ADVANCED_FACE('',(#68,#69),#40,.T.);
#98=ADVANCED_FACE('',(#70,#71),#35,.T.);
#99=ADVANCED_FACE('',(#72,#73),#111,.F.);
#100=ADVANCED_FACE('',(#74,#75),#45,.F.);
#101=ADVANCED_FACE('',(#76,#77),#112,.F.);
#102=ADVANCED_FACE('',(#78,#79),#41,.T.);
#103=ADVANCED_FACE('',(#80,#81),#46,.T.);
#104=ADVANCED_FACE('',(#82,#83),#47,.T.);
#105=ADVANCED_FACE('',(#84,#85),#36,.T.);
#106=ADVANCED_FACE('',(#115),#113,.F.);
#107=PLANE('',#258);
#108=PLANE('',#264);
#109=PLANE('',#272);
#110=PLANE('',#276);
#111=PLANE('',#284);
#112=PLANE('',#288);
#113=PLANE('',#297);
#114=FACE_OUTER_BOUND('',#116,.T.);
#115=FACE_OUTER_BOUND('',#155,.T.);
#116=EDGE_LOOP('',(#156));
#117=EDGE_LOOP('',(#157));
#118=EDGE_LOOP('',(#158));
#119=EDGE_LOOP('',(#159));
#120=EDGE_LOOP('',(#160));
#121=EDGE_LOOP('',(#161));
#122=EDGE_LOOP('',(#162));
#123=EDGE_LOOP('',(#163));
#124=EDGE_LOOP('',(#164));
#125=EDGE_LOOP('',(#165));
#126=EDGE_LOOP('',(#166));
#127=EDGE_LOOP('',(#167));
#128=EDGE_LOOP('',(#168));
#129=EDGE_LOOP('',(#169));
#130=EDGE_LOOP('',(#170));
#131=EDGE_LOOP('',(#171));
#132=EDGE_LOOP('',(#172));
#133=EDGE_LOOP('',(#173));
#134=EDGE_LOOP('',(#174));
#135=EDGE_LOOP('',(#175));
#136=EDGE_LOOP('',(#176));
#137=EDGE_LOOP('',(#177));
#138=EDGE_LOOP('',(#178));
#139=EDGE_LOOP('',(#179));
#140=EDGE_LOOP('',(#180));
#141=EDGE_LOOP('',(#181));
#142=EDGE_LOOP('',(#182));
#143=EDGE_LOOP('',(#183));
#144=EDGE_LOOP('',(#184));
#145=EDGE_LOOP('',(#185));
#146=EDGE_LOOP('',(#186));
#147=EDGE_LOOP('',(#187));
#148=EDGE_LOOP('',(#188));
#149=EDGE_LOOP('',(#189));
#150=EDGE_LOOP('',(#190));
#151=EDGE_LOOP('',(#191));
#152=EDGE_LOOP('',(#192));
#153=EDGE_LOOP('',(#193));
#154=EDGE_LOOP('',(#194));
#155=EDGE_LOOP('',(#195));
#156=ORIENTED_EDGE('',*,*,#216,.F.);
#157=ORIENTED_EDGE('',*,*,#217,.F.);
#158=ORIENTED_EDGE('',*,*,#216,.T.);
#159=ORIENTED_EDGE('',*,*,#218,.F.);
#160=ORIENTED_EDGE('',*,*,#217,.T.);
#161=ORIENTED_EDGE('',*,*,#219,.F.);
#162=ORIENTED_EDGE('',*,*,#218,.T.);
#163=ORIENTED_EDGE('',*,*,#220,.F.);
#164=ORIENTED_EDGE('',*,*,#219,.T.);
#165=ORIENTED_EDGE('',*,*,#221,.F.);
#166=ORIENTED_EDGE('',*,*,#220,.T.);
#167=ORIENTED_EDGE('',*,*,#222,.F.);
#168=ORIENTED_EDGE('',*,*,#221,.T.);
#169=ORIENTED_EDGE('',*,*,#223,.F.);
#170=ORIENTED_EDGE('',*,*,#222,.T.);
#171=ORIENTED_EDGE('',*,*,#224,.F.);
#172=ORIENTED_EDGE('',*,*,#223,.T.);
#173=ORIENTED_EDGE('',*,*,#225,.F.);
#174=ORIENTED_EDGE('',*,*,#224,.T.);
#175=ORIENTED_EDGE('',*,*,#226,.F.);
#176=ORIENTED_EDGE('',*,*,#225,.T.);
#177=ORIENTED_EDGE('',*,*,#227,.F.);
#178=ORIENTED_EDGE('',*,*,#226,.T.);
#179=ORIENTED_EDGE('',*,*,#228,.F.);
#180=ORIENTED_EDGE('',*,*,#227,.T.);
#181=ORIENTED_EDGE('',*,*,#229,.F.);
#182=ORIENTED_EDGE('',*,*,#228,.T.);
#183=ORIENTED_EDGE('',*,*,#230,.F.);
#184=ORIENTED_EDGE('',*,*,#229,.T.);
#185=ORIENTED_EDGE('',*,*,#231,.F.);
#186=ORIENTED_EDGE('',*,*,#230,.T.);
#187=ORIENTED_EDGE('',*,*,#232,.F.);
#188=ORIENTED_EDGE('',*,*,#231,.T.);
#189=ORIENTED_EDGE('',*,*,#233,.F.);
#190=ORIENTED_EDGE('',*,*,#232,.T.);
#191=ORIENTED_EDGE('',*,*,#234,.F.);
#192=ORIENTED_EDGE('',*,*,#233,.T.);
#193=ORIENTED_EDGE('',*,*,#235,.F.);
#194=ORIENTED_EDGE('',*,*,#234,.T.);
#195=ORIENTED_EDGE('',*,*,#235,.T.);
#196=VERTEX_POINT('',#384);
#197=VERTEX_POINT('',#387);
#198=VERTEX_POINT('',#390);
#199=VERTEX_POINT('',#393);
#200=VERTEX_POINT('',#396);
#201=VERTEX_POINT('',#399);
#202=VERTEX_POINT('',#402);
#203=VERTEX_POINT('',#405);
#204=VERTEX_POINT('',#408);
#205=VERTEX_POINT('',#411);
#206=VERTEX_POINT('',#414);
#207=VERTEX_POINT('',#417);
#208=VERTEX_POINT('',#420);
#209=VERTEX_POINT('',#423);
#210=VERTEX_POINT('',#426);
#211=VERTEX_POINT('',#429);
#212=VERTEX_POINT('',#432);
#213=VERTEX_POINT('',#435);
#214=VERTEX_POINT('',#438);
#215=VERTEX_POINT('',#441);
#216=EDGE_CURVE('',#196,#196,#236,.T.);
#217=EDGE_CURVE('',#197,#197,#237,.T.);
#218=EDGE_CURVE('',#198,#198,#238,.T.);
#219=EDGE_CURVE('',#199,#199,#239,.T.);
#220=EDGE_CURVE('',#200,#200,#240,.T.);
#221=EDGE_CURVE('',#201,#201,#241,.T.);
#222=EDGE_CURVE('',#202,#202,#242,.T.);
#223=EDGE_CURVE('',#203,#203,#243,.T.);
#224=EDGE_CURVE('',#204,#204,#244,.T.);
#225=EDGE_CURVE('',#205,#205,#245,.T.);
#226=EDGE_CURVE('',#206,#206,#246,.T.);
#227=EDGE_CURVE('',#207,#207,#247,.T.);
#228=EDGE_CURVE('',#208,#208,#248,.T.);
#229=EDGE_CURVE('',#209,#209,#249,.T.);
#230=EDGE_CURVE('',#210,#210,#250,.T.);
#231=EDGE_CURVE('',#211,#211,#251,.T.);
#232=EDGE_CURVE('',#212,#212,#252,.T.);
#233=EDGE_CURVE('',#213,#213,#253,.T.);
#234=EDGE_CURVE('',#214,#214,#254,.T.);
#235=EDGE_CURVE('',#215,#215,#255,.T.);
#236=CIRCLE('',#257,19.0);
#237=CIRCLE('',#259,24.0);
#238=CIRCLE('',#261,24.0);
#239=CIRCLE('',#263,30.75);
#240=CIRCLE('',#265,31.75);
#241=CIRCLE('',#267,31.75);
#242=CIRCLE('',#269,28.9841978045701);
#243=CIRCLE('',#271,28.0);
#244=CIRCLE('',#273,28.0);
#245=CIRCLE('',#275,28.9841978045701);
#246=CIRCLE('',#277,31.75);
#247=CIRCLE('',#279,31.75);
#248=CIRCLE('',#281,30.75);
#249=CIRCLE('',#283,23.9);
#250=CIRCLE('',#285,22.7803847577293);
#251=CIRCLE('',#287,21.925);
#252=CIRCLE('',#289,21.925);
#253=CIRCLE('',#291,22.225);
#254=CIRCLE('',#293,12.3957346175023);
#255=CIRCLE('',#295,11.4062035801479);
#256=AXIS2_PLACEMENT_3D('',#382,#298,#299);
#257=AXIS2_PLACEMENT_3D('',#383,#300,#301);
#258=AXIS2_PLACEMENT_3D('',#385,#302,#303);
#259=AXIS2_PLACEMENT_3D('',#386,#304,#305);
#260=AXIS2_PLACEMENT_3D('',#388,#306,#307);
#261=AXIS2_PLACEMENT_3D('',#389,#308,#309);
#262=AXIS2_PLACEMENT_3D('',#391,#310,#311);
#263=AXIS2_PLACEMENT_3D('',#392,#312,#313);
#264=AXIS2_PLACEMENT_3D('',#394,#314,#315);
#265=AXIS2_PLACEMENT_3D('',#395,#316,#317);
#266=AXIS2_PLACEMENT_3D('',#397,#318,#319);
#267=AXIS2_PLACEMENT_3D('',#398,#320,#321);
#268=AXIS2_PLACEMENT_3D('',#400,#322,#323);
#269=AXIS2_PLACEMENT_3D('',#401,#324,#325);
#270=AXIS2_PLACEMENT_3D('',#403,#326,#327);
#271=AXIS2_PLACEMENT_3D('',#404,#328,#329);
#272=AXIS2_PLACEMENT_3D('',#406,#330,#331);
#273=AXIS2_PLACEMENT_3D('',#407,#332,#333);
#274=AXIS2_PLACEMENT_3D('',#409,#334,#335);
#275=AXIS2_PLACEMENT_3D('',#410,#336,#337);
#276=AXIS2_PLACEMENT_3D('',#412,#338,#339);
#277=AXIS2_PLACEMENT_3D('',#413,#340,#341);
#278=AXIS2_PLACEMENT_3D('',#415,#342,#343);
#279=AXIS2_PLACEMENT_3D('',#416,#344,#345);
#280=AXIS2_PLACEMENT_3D('',#418,#346,#347);
#281=AXIS2_PLACEMENT_3D('',#419,#348,#349);
#282=AXIS2_PLACEMENT_3D('',#421,#350,#351);
#283=AXIS2_PLACEMENT_3D('',#422,#352,#353);
#284=AXIS2_PLACEMENT_3D('',#424,#354,#355);
#285=AXIS2_PLACEMENT_3D('',#425,#356,#357);
#286=AXIS2_PLACEMENT_3D('',#427,#358,#359);
#287=AXIS2_PLACEMENT_3D('',#428,#360,#361);
#288=AXIS2_PLACEMENT_3D('',#430,#362,#363);
#289=AXIS2_PLACEMENT_3D('',#431,#364,#365);
#290=AXIS2_PLACEMENT_3D('',#433,#366,#367);
#291=AXIS2_PLACEMENT_3D('',#434,#368,#369);
#292=AXIS2_PLACEMENT_3D('',#436,#370,#371);
#293=AXIS2_PLACEMENT_3D('',#437,#372,#373);
#294=AXIS2_PLACEMENT_3D('',#439,#374,#375);
#295=AXIS2_PLACEMENT_3D('',#440,#376,#377);
#296=AXIS2_PLACEMENT_3D('',#442,#378,#379);
#297=AXIS2_PLACEMENT_3D('',#443,#380,#381);
#298=DIRECTION('',(0.0,0.0,1.0));
#299=DIRECTION('',(1.0,0.0,0.0));
#300=DIRECTION('',(0.0,0.0,1.0));
#301=DIRECTION('',(1.0,0.0,0.0));
#302=DIRECTION('',(0.0,0.0,1.0));
#303=DIRECTION('',(1.0,0.0,0.0));
#304=DIRECTION('',(0.0,0.0,1.0));
#305=DIRECTION('',(1.0,0.0,0.0));
#306=DIRECTION('',(0.0,0.0,1.0));
#307=DIRECTION('',(1.0,0.0,-5.44761052318526E-17));
#308=DIRECTION('',(0.0,0.0,1.0));
#309=DIRECTION('',(1.0,0.0,0.0));
#310=DIRECTION('',(0.0,0.0,1.0));
#311=DIRECTION('',(1.0,0.0,0.0));
#312=DIRECTION('',(0.0,0.0,1.0));
#313=DIRECTION('',(1.0,0.0,0.0));
#314=DIRECTION('',(0.0,0.0,1.0));
#315=DIRECTION('',(1.0,0.0,0.0));
#316=DIRECTION('',(0.0,0.0,1.0));
#317=DIRECTION('',(1.0,0.0,0.0));
#318=DIRECTION('',(0.0,0.0,1.0));
#319=DIRECTION('',(1.0,0.0,0.0));
#320=DIRECTION('',(0.0,0.0,1.0));
#321=DIRECTION('',(1.0,0.0,0.0));
#322=DIRECTION('',(0.0,0.0,1.0));
#323=DIRECTION('',(1.0,0.0,0.0));
#324=DIRECTION('',(0.0,0.0,1.0));
#325=DIRECTION('',(1.0,0.0,0.0));
#326=DIRECTION('',(0.0,0.0,-1.0));
#327=DIRECTION('',(-1.0,0.0,-2.26208309783345E-17));
#328=DIRECTION('',(0.0,0.0,1.0));
#329=DIRECTION('',(1.0,0.0,0.0));
#330=DIRECTION('',(0.0,0.0,-1.0));
#331=DIRECTION('',(-1.0,0.0,0.0));
#332=DIRECTION('',(0.0,0.0,1.0));
#333=DIRECTION('',(1.0,0.0,0.0));
#334=DIRECTION('',(0.0,0.0,1.0));
#335=DIRECTION('',(1.0,0.0,0.0));
#336=DIRECTION('',(0.0,0.0,1.0));
#337=DIRECTION('',(1.0,0.0,0.0));
#338=DIRECTION('',(0.0,0.0,1.0));
#339=DIRECTION('',(1.0,0.0,0.0));
#340=DIRECTION('',(0.0,0.0,1.0));
#341=DIRECTION('',(1.0,0.0,0.0));
#342=DIRECTION('',(0.0,0.0,1.0));
#343=DIRECTION('',(1.0,0.0,-2.46264763432249E-17));
#344=DIRECTION('',(0.0,0.0,1.0));
#345=DIRECTION('',(1.0,0.0,0.0));
#346=DIRECTION('',(0.0,0.0,1.0));
#347=DIRECTION('',(1.0,0.0,0.0));
#348=DIRECTION('',(0.0,0.0,1.0));
#349=DIRECTION('',(1.0,0.0,0.0));
#350=DIRECTION('',(0.0,0.0,1.0));
#351=DIRECTION('',(1.0,0.0,0.0));
#352=DIRECTION('',(0.0,0.0,1.0));
#353=DIRECTION('',(1.0,0.0,0.0));
#354=DIRECTION('',(0.0,0.0,-1.0));
#355=DIRECTION('',(-1.0,0.0,0.0));
#356=DIRECTION('',(0.0,0.0,1.0));
#357=DIRECTION('',(1.0,0.0,0.0));
#358=DIRECTION('',(0.0,0.0,1.0));
#359=DIRECTION('',(1.0,0.0,-2.30930004791471E-19));
#360=DIRECTION('',(0.0,0.0,1.0));
#361=DIRECTION('',(1.0,0.0,0.0));
#362=DIRECTION('',(0.0,0.0,-1.0));
#363=DIRECTION('',(-1.0,0.0,0.0));
#364=DIRECTION('',(0.0,0.0,1.0));
#365=DIRECTION('',(1.0,0.0,0.0));
#366=DIRECTION('',(0.0,0.0,1.0));
#367=DIRECTION('',(1.0,0.0,0.0));
#368=DIRECTION('',(0.0,0.0,1.0));
#369=DIRECTION('',(1.0,0.0,0.0));
#370=DIRECTION('',(0.0,0.0,1.0));
#371=DIRECTION('',(1.0,0.0,1.92177849266003E-17));
#372=DIRECTION('',(0.0,0.0,1.0));
#373=DIRECTION('',(1.0,0.0,0.0));
#374=DIRECTION('',(0.0,0.0,-1.0));
#375=DIRECTION('',(-1.0,0.0,-8.2570448999048E-17));
#376=DIRECTION('',(0.0,0.0,1.0));
#377=DIRECTION('',(1.0,0.0,0.0));
#378=DIRECTION('',(0.0,0.0,1.0));
#379=DIRECTION('',(1.0,0.0,0.0));
#380=DIRECTION('',(0.0,0.0,-1.0));
#381=DIRECTION('',(-1.0,0.0,0.0));
#382=CARTESIAN_POINT('',(0.0,0.0,0.0));
#383=CARTESIAN_POINT('',(0.0,0.0,-60.0));
#384=CARTESIAN_POINT('',(19.0,0.0,-60.0));
#385=CARTESIAN_POINT('',(0.0,-8.0,-60.0));
#386=CARTESIAN_POINT('',(0.0,0.0,-55.0));
#387=CARTESIAN_POINT('',(24.0,0.0,-55.0));
#388=CARTESIAN_POINT('',(0.0,0.0,-60.0));
#389=CARTESIAN_POINT('',(0.0,0.0,-19.05));
#390=CARTESIAN_POINT('',(24.0,0.0,-19.05));
#391=CARTESIAN_POINT('',(0.0,0.0,0.0));
#392=CARTESIAN_POINT('',(0.0,0.0,-19.05));
#393=CARTESIAN_POINT('',(30.75,0.0,-19.05));
#394=CARTESIAN_POINT('',(0.0,-24.0,-19.05));
#395=CARTESIAN_POINT('',(0.0,0.0,-18.05));
#396=CARTESIAN_POINT('',(31.75,0.0,-18.05));
#397=CARTESIAN_POINT('',(0.0,0.0,-18.05));
#398=CARTESIAN_POINT('',(0.0,0.0,-14.6218366420567));
#399=CARTESIAN_POINT('',(31.75,0.0,-14.6218366420567));
#400=CARTESIAN_POINT('',(0.0,0.0,0.0));
#401=CARTESIAN_POINT('',(0.0,0.0,-13.025));
#402=CARTESIAN_POINT('',(28.9841978045701,0.0,-13.025));
#403=CARTESIAN_POINT('',(0.0,0.0,-14.6218366420567));
#404=CARTESIAN_POINT('',(0.0,0.0,-13.025));
#405=CARTESIAN_POINT('',(28.0,0.0,-13.025));
#406=CARTESIAN_POINT('',(0.0,-28.9841978045701,-13.025));
#407=CARTESIAN_POINT('',(0.0,0.0,-9.175));
#408=CARTESIAN_POINT('',(28.0,0.0,-9.175));
#409=CARTESIAN_POINT('',(0.0,0.0,0.0));
#410=CARTESIAN_POINT('',(0.0,0.0,-9.175));
#411=CARTESIAN_POINT('',(28.9841978045701,0.0,-9.175));
#412=CARTESIAN_POINT('',(0.0,-28.0,-9.175));
#413=CARTESIAN_POINT('',(0.0,0.0,-7.57816335794328));
#414=CARTESIAN_POINT('',(31.75,0.0,-7.57816335794328));
#415=CARTESIAN_POINT('',(0.0,0.0,-9.175));
#416=CARTESIAN_POINT('',(0.0,0.0,-2.0));
#417=CARTESIAN_POINT('',(31.75,0.0,-2.0));
#418=CARTESIAN_POINT('',(0.0,0.0,0.0));
#419=CARTESIAN_POINT('',(0.0,0.0,-1.0));
#420=CARTESIAN_POINT('',(30.75,0.0,-1.0));
#421=CARTESIAN_POINT('',(0.0,0.0,-2.0));
#422=CARTESIAN_POINT('',(0.0,0.0,-1.0));
#423=CARTESIAN_POINT('',(23.9,0.0,-1.0));
#424=CARTESIAN_POINT('',(0.0,-30.75,-1.0));
#425=CARTESIAN_POINT('',(0.0,0.0,-1.30000000000001));
#426=CARTESIAN_POINT('',(22.7803847577293,0.0,-1.30000000000001));
#427=CARTESIAN_POINT('',(0.0,0.0,-1.0));
#428=CARTESIAN_POINT('',(0.0,0.0,-1.3));
#429=CARTESIAN_POINT('',(21.925,0.0,-1.3));
#430=CARTESIAN_POINT('',(0.0,-22.7803847577293,-1.30000000000001));
#431=CARTESIAN_POINT('',(0.0,0.0,-0.428444402022624));
#432=CARTESIAN_POINT('',(21.925,0.0,-0.428444402022624));
#433=CARTESIAN_POINT('',(0.0,0.0,0.0));
#434=CARTESIAN_POINT('',(0.0,0.0,1.38777878078145E-14));
#435=CARTESIAN_POINT('',(22.225,0.0,1.38777878078145E-14));
#436=CARTESIAN_POINT('',(0.0,0.0,-0.428444402022624));
#437=CARTESIAN_POINT('',(0.0,0.0,67.3943202207325));
#438=CARTESIAN_POINT('',(12.3957346175023,0.0,67.3943202207325));
#439=CARTESIAN_POINT('',(0.0,0.0,1.38777878078145E-14));
#440=CARTESIAN_POINT('',(0.0,0.0,68.25));
#441=CARTESIAN_POINT('',(11.4062035801479,0.0,68.25));
#442=CARTESIAN_POINT('',(0.0,0.0,67.25));
#443=CARTESIAN_POINT('',(0.0,-8.5045,68.25));
#444=MECHANICAL_DESIGN_GEOMETRIC_PRESENTATION_REPRESENTATION('',(#24),#445);
#445=(GEOMETRIC_REPRESENTATION_CONTEXT(3)GLOBAL_UNCERTAINTY_ASSIGNED_CONTEXT((#446))
     GLOBAL_UNIT_ASSIGNED_CONTEXT((#452,#448,#447))REPRESENTATION_CONTEXT('392','TOP_LEVEL_ASSEMBLY_PART'));
#446=UNCERTAINTY_MEASURE_WITH_UNIT(LENGTH_MEASURE(2.0E-5),#452,'DISTANCE_ACCURACY_VALUE',
     'Maximum Tolerance applied to model');
#447=(NAMED_UNIT(*)SI_UNIT($,.STERADIAN.)SOLID_ANGLE_UNIT());
#448=(CONVERSION_BASED_UNIT('DEGREE',#450)NAMED_UNIT(*)PLANE_ANGLE_UNIT());
#449=DIMENSIONAL_EXPONENTS(0.0,0.0,0.0,0.0,0.0,0.0,0.0);
#450=PLANE_ANGLE_MEASURE_WITH_UNIT(PLANE_ANGLE_MEASURE(0.0174532925),#451);
#451=(NAMED_UNIT(*)PLANE_ANGLE_UNIT()SI_UNIT($,.RADIAN.));
#452=(LENGTH_UNIT()NAMED_UNIT(*)SI_UNIT(.MILLI.,.METRE.));
#453=CARTESIAN_POINT('',(0.0,0.0,0.0));
#454=DIRECTION('',(0.0,0.0,1.0));
#455=DIRECTION('',(1.0,0.0,0.0));
#456=AXIS2_PLACEMENT_3D('PCS',#453,#454,#455);
#457=CARTESIAN_POINT('',(0.0,0.0,0.0));
#458=DIRECTION('',(0.0,0.0,1.0));
#459=DIRECTION('',(1.0,0.0,0.0));
#460=AXIS2_PLACEMENT_3D('MCS',#457,#458,#459);
#461=CARTESIAN_POINT('',(0.0,0.0,-60.0));
#462=DIRECTION('',(0.0,0.0,1.0));
#463=DIRECTION('',(1.0,0.0,0.0));
#464=AXIS2_PLACEMENT_3D('CSW',#461,#462,#463);
#465=CONSTRUCTIVE_GEOMETRY_REPRESENTATION('supplemental geometry',(#456,#460,#464),
     #445);
#466=CONSTRUCTIVE_GEOMETRY_REPRESENTATION_RELATIONSHIP('supplemental geometry',$,
     #22,#465);
ENDSEC;
END-ISO-10303-21;
