ISO-10303-21;
HEADER;
/* Generated by software containing ST-Developer
 * from STEP Tools, Inc. (www.steptools.com) 
 */
/* OPTION: using custom schema-name function */

FILE_DESCRIPTION(
/* description */ (''),
/* implementation_level */ '2;1');

FILE_NAME(
/* name */ '1493025672806.stp',
/* time_stamp */ '2017-04-24T11:21:16+02:00',
/* author */ (''),
/* organization */ ('SMS'),
/* preprocessor_version */ 'ST-DEVELOPER v15',
/* originating_system */ 'SIEMENS PLM Software NX 8.5',
/* authorisation */ '');

FILE_SCHEMA (('AUTOMOTIVE_DESIGN { 1 0 10303 214 3 1 1 1 }'));
ENDSEC;

DATA;
#10=CONSTRUCTIVE_GEOMETRY_REPRESENTATION_RELATIONSHIP(
'supplemental geometry','',#26,#11);
#11=CONSTRUCTIVE_GEOMETRY_REPRESENTATION('supplemental geometry',(#358,
#359,#360,#361),#619);
#12=GEOMETRICALLY_BOUNDED_WIREFRAME_SHAPE_REPRESENTATION(
'392.54014-4025070-636200737523021594-1-None',(#27),#619);
#13=SHAPE_REPRESENTATION_RELATIONSHIP('None',
'relationship between 392.54014-4025070-636200737523021594-1-None and 
392.54014-4025070-636200737523021594-1-None',#26,#15);
#14=SHAPE_REPRESENTATION_RELATIONSHIP('None',
'relationship between 392.54014-4025070-636200737523021594-1-None and 
392.54014-4025070-636200737523021594-1-None',#26,#12);
#15=ADVANCED_BREP_SHAPE_REPRESENTATION(
'392.54014-4025070-636200737523021594-1-None',(#33),#619);
#16=SHAPE_DEFINITION_REPRESENTATION(#17,#26);
#17=PRODUCT_DEFINITION_SHAPE('','',#18);
#18=PRODUCT_DEFINITION(' ','',#20,#19);
#19=PRODUCT_DEFINITION_CONTEXT('part definition',#25,'design');
#20=PRODUCT_DEFINITION_FORMATION_WITH_SPECIFIED_SOURCE(' ',' ',#22,
 .NOT_KNOWN.);
#21=PRODUCT_RELATED_PRODUCT_CATEGORY('part','',(#22));
#22=PRODUCT('392.54014-4025070-636200737523021594-1',
'392.54014-4025070-636200737523021594-1',' ',(#23));
#23=PRODUCT_CONTEXT(' ',#25,'mechanical');
#24=APPLICATION_PROTOCOL_DEFINITION('international standard',
'automotive_design',2010,#25);
#25=APPLICATION_CONTEXT(
'core data for automotive mechanical design processes');
#26=SHAPE_REPRESENTATION('392.54014-4025070-636200737523021594-1-None',
(#357),#619);
#27=GEOMETRIC_CURVE_SET('None',(#532,#533,#534));
#28=SURFACE_STYLE_USAGE(.BOTH.,#29);
#29=SURFACE_SIDE_STYLE('',(#30));
#30=SURFACE_STYLE_FILL_AREA(#31);
#31=FILL_AREA_STYLE('',(#32));
#32=FILL_AREA_STYLE_COLOUR('',#356);
#33=MANIFOLD_SOLID_BREP('NOCUT',#34);
#34=CLOSED_SHELL('',(#105,#106,#107,#108,#109,#110,#111,#112,#113,#114,
#115,#116,#117,#118,#119,#120,#121,#122,#123,#124,#125,#126,#127,#128,#129,
#130,#131));
#35=TOROIDAL_SURFACE('',#371,20.,1.);
#36=TOROIDAL_SURFACE('',#385,22.,1.);
#37=TOROIDAL_SURFACE('',#389,30.75,1.);
#38=TOROIDAL_SURFACE('',#405,30.75,1.);
#39=CYLINDRICAL_SURFACE('',#369,21.);
#40=CYLINDRICAL_SURFACE('',#375,16.);
#41=CYLINDRICAL_SURFACE('',#379,14.75);
#42=CYLINDRICAL_SURFACE('',#383,21.);
#43=CYLINDRICAL_SURFACE('',#391,31.75);
#44=CYLINDRICAL_SURFACE('',#397,28.);
#45=CYLINDRICAL_SURFACE('',#403,31.75);
#46=CYLINDRICAL_SURFACE('',#411,21.925);
#47=CONICAL_SURFACE('',#367,15.8038475772934,59.9999999999998);
#48=CONICAL_SURFACE('',#377,16.,29.9999999999999);
#49=CONICAL_SURFACE('',#381,14.75,59.9999999999997);
#50=CONICAL_SURFACE('',#393,31.75,60.0000000000001);
#51=CONICAL_SURFACE('',#401,28.9841978045701,59.9999999999999);
#52=CONICAL_SURFACE('',#409,24.1,75.0000000000004);
#53=CONICAL_SURFACE('',#413,21.925,35.0000000000002);
#54=CONICAL_SURFACE('',#414,22.225,8.29722000000015);
#55=FACE_BOUND('',#143,.T.);
#56=FACE_BOUND('',#144,.T.);
#57=FACE_BOUND('',#145,.T.);
#58=FACE_BOUND('',#146,.T.);
#59=FACE_BOUND('',#147,.T.);
#60=FACE_BOUND('',#148,.T.);
#61=FACE_BOUND('',#149,.T.);
#62=FACE_BOUND('',#150,.T.);
#63=FACE_BOUND('',#151,.T.);
#64=FACE_BOUND('',#152,.T.);
#65=FACE_BOUND('',#153,.T.);
#66=FACE_BOUND('',#154,.T.);
#67=FACE_BOUND('',#155,.T.);
#68=FACE_BOUND('',#156,.T.);
#69=FACE_BOUND('',#157,.T.);
#70=FACE_BOUND('',#158,.T.);
#71=FACE_BOUND('',#159,.T.);
#72=FACE_BOUND('',#160,.T.);
#73=FACE_BOUND('',#161,.T.);
#74=FACE_BOUND('',#162,.T.);
#75=FACE_BOUND('',#163,.T.);
#76=FACE_BOUND('',#164,.T.);
#77=FACE_BOUND('',#165,.T.);
#78=FACE_BOUND('',#166,.T.);
#79=FACE_BOUND('',#167,.T.);
#80=FACE_BOUND('',#168,.T.);
#81=FACE_BOUND('',#169,.T.);
#82=FACE_BOUND('',#170,.T.);
#83=FACE_BOUND('',#171,.T.);
#84=FACE_BOUND('',#172,.T.);
#85=FACE_BOUND('',#173,.T.);
#86=FACE_BOUND('',#174,.T.);
#87=FACE_BOUND('',#175,.T.);
#88=FACE_BOUND('',#176,.T.);
#89=FACE_BOUND('',#177,.T.);
#90=FACE_BOUND('',#178,.T.);
#91=FACE_BOUND('',#179,.T.);
#92=FACE_BOUND('',#180,.T.);
#93=FACE_BOUND('',#181,.T.);
#94=FACE_BOUND('',#182,.T.);
#95=FACE_BOUND('',#183,.T.);
#96=FACE_BOUND('',#184,.T.);
#97=FACE_BOUND('',#185,.T.);
#98=FACE_BOUND('',#186,.T.);
#99=FACE_BOUND('',#187,.T.);
#100=FACE_BOUND('',#188,.T.);
#101=FACE_BOUND('',#189,.T.);
#102=FACE_BOUND('',#190,.T.);
#103=FACE_BOUND('',#191,.T.);
#104=FACE_BOUND('',#192,.T.);
#105=ADVANCED_FACE('',(#139),#132,.F.);
#106=ADVANCED_FACE('',(#140),#133,.F.);
#107=ADVANCED_FACE('',(#55,#56),#47,.T.);
#108=ADVANCED_FACE('',(#57,#58),#39,.T.);
#109=ADVANCED_FACE('',(#59,#60),#35,.T.);
#110=ADVANCED_FACE('',(#61,#62),#134,.F.);
#111=ADVANCED_FACE('',(#63,#64),#40,.T.);
#112=ADVANCED_FACE('',(#65,#66),#48,.T.);
#113=ADVANCED_FACE('',(#67,#68),#41,.T.);
#114=ADVANCED_FACE('',(#69,#70),#49,.T.);
#115=ADVANCED_FACE('',(#71,#72),#42,.T.);
#116=ADVANCED_FACE('',(#73,#74),#36,.F.);
#117=ADVANCED_FACE('',(#75,#76),#135,.F.);
#118=ADVANCED_FACE('',(#77,#78),#37,.T.);
#119=ADVANCED_FACE('',(#79,#80),#43,.T.);
#120=ADVANCED_FACE('',(#81,#82),#50,.T.);
#121=ADVANCED_FACE('',(#83,#84),#136,.F.);
#122=ADVANCED_FACE('',(#85,#86),#44,.T.);
#123=ADVANCED_FACE('',(#87,#88),#137,.F.);
#124=ADVANCED_FACE('',(#89,#90),#51,.T.);
#125=ADVANCED_FACE('',(#91,#92),#45,.T.);
#126=ADVANCED_FACE('',(#93,#94),#38,.T.);
#127=ADVANCED_FACE('',(#95,#96),#138,.F.);
#128=ADVANCED_FACE('',(#97,#98),#52,.F.);
#129=ADVANCED_FACE('',(#99,#100),#46,.T.);
#130=ADVANCED_FACE('',(#101,#102),#53,.T.);
#131=ADVANCED_FACE('',(#103,#104),#54,.T.);
#132=PLANE('',#363);
#133=PLANE('',#365);
#134=PLANE('',#373);
#135=PLANE('',#387);
#136=PLANE('',#395);
#137=PLANE('',#399);
#138=PLANE('',#407);
#139=FACE_OUTER_BOUND('',#141,.T.);
#140=FACE_OUTER_BOUND('',#142,.T.);
#141=EDGE_LOOP('',(#193));
#142=EDGE_LOOP('',(#194));
#143=EDGE_LOOP('',(#195));
#144=EDGE_LOOP('',(#196));
#145=EDGE_LOOP('',(#197));
#146=EDGE_LOOP('',(#198));
#147=EDGE_LOOP('',(#199));
#148=EDGE_LOOP('',(#200));
#149=EDGE_LOOP('',(#201));
#150=EDGE_LOOP('',(#202));
#151=EDGE_LOOP('',(#203));
#152=EDGE_LOOP('',(#204));
#153=EDGE_LOOP('',(#205));
#154=EDGE_LOOP('',(#206));
#155=EDGE_LOOP('',(#207));
#156=EDGE_LOOP('',(#208));
#157=EDGE_LOOP('',(#209));
#158=EDGE_LOOP('',(#210));
#159=EDGE_LOOP('',(#211));
#160=EDGE_LOOP('',(#212));
#161=EDGE_LOOP('',(#213));
#162=EDGE_LOOP('',(#214));
#163=EDGE_LOOP('',(#215));
#164=EDGE_LOOP('',(#216));
#165=EDGE_LOOP('',(#217));
#166=EDGE_LOOP('',(#218));
#167=EDGE_LOOP('',(#219));
#168=EDGE_LOOP('',(#220));
#169=EDGE_LOOP('',(#221));
#170=EDGE_LOOP('',(#222));
#171=EDGE_LOOP('',(#223));
#172=EDGE_LOOP('',(#224));
#173=EDGE_LOOP('',(#225));
#174=EDGE_LOOP('',(#226));
#175=EDGE_LOOP('',(#227));
#176=EDGE_LOOP('',(#228));
#177=EDGE_LOOP('',(#229));
#178=EDGE_LOOP('',(#230));
#179=EDGE_LOOP('',(#231));
#180=EDGE_LOOP('',(#232));
#181=EDGE_LOOP('',(#233));
#182=EDGE_LOOP('',(#234));
#183=EDGE_LOOP('',(#235));
#184=EDGE_LOOP('',(#236));
#185=EDGE_LOOP('',(#237));
#186=EDGE_LOOP('',(#238));
#187=EDGE_LOOP('',(#239));
#188=EDGE_LOOP('',(#240));
#189=EDGE_LOOP('',(#241));
#190=EDGE_LOOP('',(#242));
#191=EDGE_LOOP('',(#243));
#192=EDGE_LOOP('',(#244));
#193=ORIENTED_EDGE('',*,*,#271,.T.);
#194=ORIENTED_EDGE('',*,*,#272,.F.);
#195=ORIENTED_EDGE('',*,*,#273,.F.);
#196=ORIENTED_EDGE('',*,*,#272,.T.);
#197=ORIENTED_EDGE('',*,*,#274,.F.);
#198=ORIENTED_EDGE('',*,*,#273,.T.);
#199=ORIENTED_EDGE('',*,*,#275,.F.);
#200=ORIENTED_EDGE('',*,*,#274,.T.);
#201=ORIENTED_EDGE('',*,*,#276,.F.);
#202=ORIENTED_EDGE('',*,*,#275,.T.);
#203=ORIENTED_EDGE('',*,*,#277,.F.);
#204=ORIENTED_EDGE('',*,*,#276,.T.);
#205=ORIENTED_EDGE('',*,*,#278,.F.);
#206=ORIENTED_EDGE('',*,*,#277,.T.);
#207=ORIENTED_EDGE('',*,*,#279,.F.);
#208=ORIENTED_EDGE('',*,*,#278,.T.);
#209=ORIENTED_EDGE('',*,*,#280,.F.);
#210=ORIENTED_EDGE('',*,*,#279,.T.);
#211=ORIENTED_EDGE('',*,*,#281,.F.);
#212=ORIENTED_EDGE('',*,*,#280,.T.);
#213=ORIENTED_EDGE('',*,*,#282,.F.);
#214=ORIENTED_EDGE('',*,*,#281,.T.);
#215=ORIENTED_EDGE('',*,*,#283,.F.);
#216=ORIENTED_EDGE('',*,*,#282,.T.);
#217=ORIENTED_EDGE('',*,*,#284,.F.);
#218=ORIENTED_EDGE('',*,*,#283,.T.);
#219=ORIENTED_EDGE('',*,*,#285,.F.);
#220=ORIENTED_EDGE('',*,*,#284,.T.);
#221=ORIENTED_EDGE('',*,*,#286,.F.);
#222=ORIENTED_EDGE('',*,*,#285,.T.);
#223=ORIENTED_EDGE('',*,*,#287,.F.);
#224=ORIENTED_EDGE('',*,*,#286,.T.);
#225=ORIENTED_EDGE('',*,*,#288,.F.);
#226=ORIENTED_EDGE('',*,*,#287,.T.);
#227=ORIENTED_EDGE('',*,*,#289,.F.);
#228=ORIENTED_EDGE('',*,*,#288,.T.);
#229=ORIENTED_EDGE('',*,*,#290,.F.);
#230=ORIENTED_EDGE('',*,*,#289,.T.);
#231=ORIENTED_EDGE('',*,*,#291,.F.);
#232=ORIENTED_EDGE('',*,*,#290,.T.);
#233=ORIENTED_EDGE('',*,*,#292,.F.);
#234=ORIENTED_EDGE('',*,*,#291,.T.);
#235=ORIENTED_EDGE('',*,*,#293,.F.);
#236=ORIENTED_EDGE('',*,*,#292,.T.);
#237=ORIENTED_EDGE('',*,*,#294,.F.);
#238=ORIENTED_EDGE('',*,*,#293,.T.);
#239=ORIENTED_EDGE('',*,*,#295,.F.);
#240=ORIENTED_EDGE('',*,*,#294,.T.);
#241=ORIENTED_EDGE('',*,*,#296,.F.);
#242=ORIENTED_EDGE('',*,*,#295,.T.);
#243=ORIENTED_EDGE('',*,*,#271,.F.);
#244=ORIENTED_EDGE('',*,*,#296,.T.);
#245=VERTEX_POINT('',#540);
#246=VERTEX_POINT('',#543);
#247=VERTEX_POINT('',#546);
#248=VERTEX_POINT('',#549);
#249=VERTEX_POINT('',#552);
#250=VERTEX_POINT('',#555);
#251=VERTEX_POINT('',#558);
#252=VERTEX_POINT('',#561);
#253=VERTEX_POINT('',#564);
#254=VERTEX_POINT('',#567);
#255=VERTEX_POINT('',#570);
#256=VERTEX_POINT('',#573);
#257=VERTEX_POINT('',#576);
#258=VERTEX_POINT('',#579);
#259=VERTEX_POINT('',#582);
#260=VERTEX_POINT('',#585);
#261=VERTEX_POINT('',#588);
#262=VERTEX_POINT('',#591);
#263=VERTEX_POINT('',#594);
#264=VERTEX_POINT('',#597);
#265=VERTEX_POINT('',#600);
#266=VERTEX_POINT('',#603);
#267=VERTEX_POINT('',#606);
#268=VERTEX_POINT('',#609);
#269=VERTEX_POINT('',#612);
#270=VERTEX_POINT('',#615);
#271=EDGE_CURVE('',#245,#245,#297,.T.);
#272=EDGE_CURVE('',#246,#246,#298,.T.);
#273=EDGE_CURVE('',#247,#247,#299,.T.);
#274=EDGE_CURVE('',#248,#248,#300,.T.);
#275=EDGE_CURVE('',#249,#249,#301,.T.);
#276=EDGE_CURVE('',#250,#250,#302,.T.);
#277=EDGE_CURVE('',#251,#251,#303,.T.);
#278=EDGE_CURVE('',#252,#252,#304,.T.);
#279=EDGE_CURVE('',#253,#253,#305,.T.);
#280=EDGE_CURVE('',#254,#254,#306,.T.);
#281=EDGE_CURVE('',#255,#255,#307,.T.);
#282=EDGE_CURVE('',#256,#256,#308,.T.);
#283=EDGE_CURVE('',#257,#257,#309,.T.);
#284=EDGE_CURVE('',#258,#258,#310,.T.);
#285=EDGE_CURVE('',#259,#259,#311,.T.);
#286=EDGE_CURVE('',#260,#260,#312,.T.);
#287=EDGE_CURVE('',#261,#261,#313,.T.);
#288=EDGE_CURVE('',#262,#262,#314,.T.);
#289=EDGE_CURVE('',#263,#263,#315,.T.);
#290=EDGE_CURVE('',#264,#264,#316,.T.);
#291=EDGE_CURVE('',#265,#265,#317,.T.);
#292=EDGE_CURVE('',#266,#266,#318,.T.);
#293=EDGE_CURVE('',#267,#267,#319,.T.);
#294=EDGE_CURVE('',#268,#268,#320,.T.);
#295=EDGE_CURVE('',#269,#269,#321,.T.);
#296=EDGE_CURVE('',#270,#270,#322,.T.);
#297=CIRCLE('',#362,12.2717837242416);
#298=CIRCLE('',#364,15.8038475772934);
#299=CIRCLE('',#366,21.);
#300=CIRCLE('',#368,21.);
#301=CIRCLE('',#370,20.);
#302=CIRCLE('',#372,16.);
#303=CIRCLE('',#374,16.);
#304=CIRCLE('',#376,14.75);
#305=CIRCLE('',#378,14.75);
#306=CIRCLE('',#380,21.);
#307=CIRCLE('',#382,21.);
#308=CIRCLE('',#384,22.);
#309=CIRCLE('',#386,30.75);
#310=CIRCLE('',#388,31.75);
#311=CIRCLE('',#390,31.75);
#312=CIRCLE('',#392,28.9841978045701);
#313=CIRCLE('',#394,28.);
#314=CIRCLE('',#396,28.);
#315=CIRCLE('',#398,28.9841978045701);
#316=CIRCLE('',#400,31.75);
#317=CIRCLE('',#402,31.75);
#318=CIRCLE('',#404,30.75);
#319=CIRCLE('',#406,24.1);
#320=CIRCLE('',#408,21.925);
#321=CIRCLE('',#410,21.925);
#322=CIRCLE('',#412,22.225);
#323=CURVE_STYLE('',#327,POSITIVE_LENGTH_MEASURE(0.13),#354);
#324=CURVE_STYLE('',#328,POSITIVE_LENGTH_MEASURE(0.18),#354);
#325=CURVE_STYLE('',#329,POSITIVE_LENGTH_MEASURE(0.18),#354);
#326=CURVE_STYLE('',#330,POSITIVE_LENGTH_MEASURE(0.18),#355);
#327=DRAUGHTING_PRE_DEFINED_CURVE_FONT('continuous');
#328=DRAUGHTING_PRE_DEFINED_CURVE_FONT('continuous');
#329=DRAUGHTING_PRE_DEFINED_CURVE_FONT('continuous');
#330=DRAUGHTING_PRE_DEFINED_CURVE_FONT('continuous');
#331=PRESENTATION_LAYER_ASSIGNMENT('1','Layer 1',(#532,#533,#534,#358,#359,
#360,#361,#33));
#332=STYLED_ITEM('',(#340),#532);
#333=STYLED_ITEM('',(#341),#533);
#334=STYLED_ITEM('',(#342),#534);
#335=STYLED_ITEM('',(#343),#358);
#336=STYLED_ITEM('',(#344),#359);
#337=STYLED_ITEM('',(#345),#360);
#338=STYLED_ITEM('',(#346),#361);
#339=STYLED_ITEM('',(#347),#33);
#340=PRESENTATION_STYLE_ASSIGNMENT((#348));
#341=PRESENTATION_STYLE_ASSIGNMENT((#349));
#342=PRESENTATION_STYLE_ASSIGNMENT((#350));
#343=PRESENTATION_STYLE_ASSIGNMENT((#323));
#344=PRESENTATION_STYLE_ASSIGNMENT((#324));
#345=PRESENTATION_STYLE_ASSIGNMENT((#325));
#346=PRESENTATION_STYLE_ASSIGNMENT((#326));
#347=PRESENTATION_STYLE_ASSIGNMENT((#28));
#348=POINT_STYLE('',#351,POSITIVE_LENGTH_MEASURE(3.),#354);
#349=POINT_STYLE('',#352,POSITIVE_LENGTH_MEASURE(3.),#354);
#350=POINT_STYLE('',#353,POSITIVE_LENGTH_MEASURE(3.),#355);
#351=PRE_DEFINED_POINT_MARKER_SYMBOL('plus');
#352=PRE_DEFINED_POINT_MARKER_SYMBOL('plus');
#353=PRE_DEFINED_POINT_MARKER_SYMBOL('plus');
#354=COLOUR_RGB('Strong Stone',0.576470588235294,0.54508278019379,0.392156862745098);
#355=COLOUR_RGB('Medium Maroon',0.6,0.4,0.4);
#356=COLOUR_RGB('TLS_NOCUT',0.499992370489052,0.499992370489052,0.499992370489052);
#357=AXIS2_PLACEMENT_3D('',#531,#415,#416);
#358=AXIS2_PLACEMENT_3D('',#535,#417,#418);
#359=AXIS2_PLACEMENT_3D('PCS',#536,#419,#420);
#360=AXIS2_PLACEMENT_3D('MCS',#537,#421,#422);
#361=AXIS2_PLACEMENT_3D('CSW',#538,#423,#424);
#362=AXIS2_PLACEMENT_3D('',#539,#425,#426);
#363=AXIS2_PLACEMENT_3D('',#541,#427,#428);
#364=AXIS2_PLACEMENT_3D('',#542,#429,#430);
#365=AXIS2_PLACEMENT_3D('',#544,#431,#432);
#366=AXIS2_PLACEMENT_3D('',#545,#433,#434);
#367=AXIS2_PLACEMENT_3D('',#547,#435,#436);
#368=AXIS2_PLACEMENT_3D('',#548,#437,#438);
#369=AXIS2_PLACEMENT_3D('',#550,#439,#440);
#370=AXIS2_PLACEMENT_3D('',#551,#441,#442);
#371=AXIS2_PLACEMENT_3D('',#553,#443,#444);
#372=AXIS2_PLACEMENT_3D('',#554,#445,#446);
#373=AXIS2_PLACEMENT_3D('',#556,#447,#448);
#374=AXIS2_PLACEMENT_3D('',#557,#449,#450);
#375=AXIS2_PLACEMENT_3D('',#559,#451,#452);
#376=AXIS2_PLACEMENT_3D('',#560,#453,#454);
#377=AXIS2_PLACEMENT_3D('',#562,#455,#456);
#378=AXIS2_PLACEMENT_3D('',#563,#457,#458);
#379=AXIS2_PLACEMENT_3D('',#565,#459,#460);
#380=AXIS2_PLACEMENT_3D('',#566,#461,#462);
#381=AXIS2_PLACEMENT_3D('',#568,#463,#464);
#382=AXIS2_PLACEMENT_3D('',#569,#465,#466);
#383=AXIS2_PLACEMENT_3D('',#571,#467,#468);
#384=AXIS2_PLACEMENT_3D('',#572,#469,#470);
#385=AXIS2_PLACEMENT_3D('',#574,#471,#472);
#386=AXIS2_PLACEMENT_3D('',#575,#473,#474);
#387=AXIS2_PLACEMENT_3D('',#577,#475,#476);
#388=AXIS2_PLACEMENT_3D('',#578,#477,#478);
#389=AXIS2_PLACEMENT_3D('',#580,#479,#480);
#390=AXIS2_PLACEMENT_3D('',#581,#481,#482);
#391=AXIS2_PLACEMENT_3D('',#583,#483,#484);
#392=AXIS2_PLACEMENT_3D('',#584,#485,#486);
#393=AXIS2_PLACEMENT_3D('',#586,#487,#488);
#394=AXIS2_PLACEMENT_3D('',#587,#489,#490);
#395=AXIS2_PLACEMENT_3D('',#589,#491,#492);
#396=AXIS2_PLACEMENT_3D('',#590,#493,#494);
#397=AXIS2_PLACEMENT_3D('',#592,#495,#496);
#398=AXIS2_PLACEMENT_3D('',#593,#497,#498);
#399=AXIS2_PLACEMENT_3D('',#595,#499,#500);
#400=AXIS2_PLACEMENT_3D('',#596,#501,#502);
#401=AXIS2_PLACEMENT_3D('',#598,#503,#504);
#402=AXIS2_PLACEMENT_3D('',#599,#505,#506);
#403=AXIS2_PLACEMENT_3D('',#601,#507,#508);
#404=AXIS2_PLACEMENT_3D('',#602,#509,#510);
#405=AXIS2_PLACEMENT_3D('',#604,#511,#512);
#406=AXIS2_PLACEMENT_3D('',#605,#513,#514);
#407=AXIS2_PLACEMENT_3D('',#607,#515,#516);
#408=AXIS2_PLACEMENT_3D('',#608,#517,#518);
#409=AXIS2_PLACEMENT_3D('',#610,#519,#520);
#410=AXIS2_PLACEMENT_3D('',#611,#521,#522);
#411=AXIS2_PLACEMENT_3D('',#613,#523,#524);
#412=AXIS2_PLACEMENT_3D('',#614,#525,#526);
#413=AXIS2_PLACEMENT_3D('',#616,#527,#528);
#414=AXIS2_PLACEMENT_3D('',#617,#529,#530);
#415=DIRECTION('',(0.,0.,1.));
#416=DIRECTION('',(1.,0.,0.));
#417=DIRECTION('',(0.,0.,1.));
#418=DIRECTION('',(1.,0.,0.));
#419=DIRECTION('',(0.,0.,1.));
#420=DIRECTION('',(1.,0.,0.));
#421=DIRECTION('',(0.,0.,1.));
#422=DIRECTION('',(1.,0.,0.));
#423=DIRECTION('',(0.,0.,1.));
#424=DIRECTION('',(1.,0.,0.));
#425=DIRECTION('',(0.,0.,1.));
#426=DIRECTION('',(1.,0.,0.));
#427=DIRECTION('',(0.,0.,-1.));
#428=DIRECTION('',(1.,0.,0.));
#429=DIRECTION('',(0.,0.,1.));
#430=DIRECTION('',(1.,0.,0.));
#431=DIRECTION('',(0.,0.,1.));
#432=DIRECTION('',(-1.,0.,0.));
#433=DIRECTION('',(0.,0.,1.));
#434=DIRECTION('',(1.,0.,0.));
#435=DIRECTION('',(0.,0.,1.));
#436=DIRECTION('',(-1.,0.,-3.17595922909368E-017));
#437=DIRECTION('',(0.,0.,1.));
#438=DIRECTION('',(1.,0.,0.));
#439=DIRECTION('',(0.,0.,1.));
#440=DIRECTION('',(-1.,0.,0.));
#441=DIRECTION('',(0.,0.,1.));
#442=DIRECTION('',(1.,0.,0.));
#443=DIRECTION('',(0.,0.,1.));
#444=DIRECTION('',(-1.,0.,0.));
#445=DIRECTION('',(0.,0.,1.));
#446=DIRECTION('',(1.,0.,0.));
#447=DIRECTION('',(0.,0.,-1.));
#448=DIRECTION('',(1.,0.,0.));
#449=DIRECTION('',(0.,0.,1.));
#450=DIRECTION('',(1.,0.,0.));
#451=DIRECTION('',(0.,0.,1.));
#452=DIRECTION('',(-1.,0.,0.));
#453=DIRECTION('',(0.,0.,1.));
#454=DIRECTION('',(1.,0.,0.));
#455=DIRECTION('',(0.,0.,-1.));
#456=DIRECTION('',(1.,0.,1.05249880851082E-016));
#457=DIRECTION('',(0.,0.,1.));
#458=DIRECTION('',(1.,0.,0.));
#459=DIRECTION('',(0.,0.,1.));
#460=DIRECTION('',(-1.,0.,0.));
#461=DIRECTION('',(0.,0.,1.));
#462=DIRECTION('',(1.,0.,0.));
#463=DIRECTION('',(0.,0.,1.));
#464=DIRECTION('',(-1.,0.,-1.9861720563218E-017));
#465=DIRECTION('',(0.,0.,1.));
#466=DIRECTION('',(1.,0.,0.));
#467=DIRECTION('',(0.,0.,1.));
#468=DIRECTION('',(-1.,0.,0.));
#469=DIRECTION('',(0.,0.,1.));
#470=DIRECTION('',(1.,0.,0.));
#471=DIRECTION('',(0.,0.,1.));
#472=DIRECTION('',(-1.,0.,0.));
#473=DIRECTION('',(0.,0.,1.));
#474=DIRECTION('',(1.,0.,0.));
#475=DIRECTION('',(0.,0.,1.));
#476=DIRECTION('',(-1.,0.,0.));
#477=DIRECTION('',(0.,0.,1.));
#478=DIRECTION('',(1.,0.,0.));
#479=DIRECTION('',(0.,0.,1.));
#480=DIRECTION('',(-1.,0.,0.));
#481=DIRECTION('',(0.,0.,1.));
#482=DIRECTION('',(1.,0.,0.));
#483=DIRECTION('',(0.,0.,1.));
#484=DIRECTION('',(-1.,0.,0.));
#485=DIRECTION('',(0.,0.,1.));
#486=DIRECTION('',(1.,0.,0.));
#487=DIRECTION('',(0.,0.,-1.));
#488=DIRECTION('',(1.,0.,-2.2620830978335E-017));
#489=DIRECTION('',(0.,0.,1.));
#490=DIRECTION('',(1.,0.,0.));
#491=DIRECTION('',(0.,0.,-1.));
#492=DIRECTION('',(1.,0.,0.));
#493=DIRECTION('',(0.,0.,1.));
#494=DIRECTION('',(1.,0.,0.));
#495=DIRECTION('',(0.,0.,1.));
#496=DIRECTION('',(-1.,0.,0.));
#497=DIRECTION('',(0.,0.,1.));
#498=DIRECTION('',(1.,0.,0.));
#499=DIRECTION('',(0.,0.,1.));
#500=DIRECTION('',(-1.,0.,0.));
#501=DIRECTION('',(0.,0.,1.));
#502=DIRECTION('',(1.,0.,0.));
#503=DIRECTION('',(0.,0.,1.));
#504=DIRECTION('',(-1.,0.,-2.4626476343225E-017));
#505=DIRECTION('',(0.,0.,1.));
#506=DIRECTION('',(1.,0.,0.));
#507=DIRECTION('',(0.,0.,1.));
#508=DIRECTION('',(-1.,0.,0.));
#509=DIRECTION('',(0.,0.,1.));
#510=DIRECTION('',(1.,0.,0.));
#511=DIRECTION('',(0.,0.,1.));
#512=DIRECTION('',(-1.,0.,0.));
#513=DIRECTION('',(0.,0.,1.));
#514=DIRECTION('',(1.,0.,0.));
#515=DIRECTION('',(0.,0.,-1.));
#516=DIRECTION('',(1.,0.,0.));
#517=DIRECTION('',(0.,0.,1.));
#518=DIRECTION('',(1.,0.,0.));
#519=DIRECTION('',(0.,0.,1.));
#520=DIRECTION('',(-1.,0.,-2.3091770869279E-019));
#521=DIRECTION('',(0.,0.,1.));
#522=DIRECTION('',(1.,0.,0.));
#523=DIRECTION('',(0.,0.,1.));
#524=DIRECTION('',(-1.,0.,0.));
#525=DIRECTION('',(0.,0.,1.));
#526=DIRECTION('',(1.,0.,0.));
#527=DIRECTION('',(0.,0.,1.));
#528=DIRECTION('',(-1.,0.,3.64837635715932E-017));
#529=DIRECTION('',(0.,0.,-1.));
#530=DIRECTION('',(1.,0.,4.12882750198962E-017));
#531=CARTESIAN_POINT('',(0.,0.,0.));
#532=CARTESIAN_POINT('',(0.,0.,0.));
#533=CARTESIAN_POINT('',(0.,0.,0.));
#534=CARTESIAN_POINT('',(0.,0.,-58.));
#535=CARTESIAN_POINT('',(0.,0.,0.));
#536=CARTESIAN_POINT('',(0.,0.,0.));
#537=CARTESIAN_POINT('',(0.,0.,0.));
#538=CARTESIAN_POINT('',(0.,0.,-58.));
#539=CARTESIAN_POINT('',(0.,0.,68.25));
#540=CARTESIAN_POINT('',(12.2717837242416,0.,68.25));
#541=CARTESIAN_POINT('',(0.,-8.5045,68.25));
#542=CARTESIAN_POINT('',(0.,0.,-70.));
#543=CARTESIAN_POINT('',(15.8038475772934,0.,-70.));
#544=CARTESIAN_POINT('',(0.,-10.2045735194571,-70.));
#545=CARTESIAN_POINT('',(0.,0.,-67.));
#546=CARTESIAN_POINT('',(21.,0.,-67.));
#547=CARTESIAN_POINT('',(0.,0.,-70.));
#548=CARTESIAN_POINT('',(0.,0.,-51.));
#549=CARTESIAN_POINT('',(21.,0.,-51.));
#550=CARTESIAN_POINT('',(0.,0.,0.));
#551=CARTESIAN_POINT('',(0.,0.,-50.));
#552=CARTESIAN_POINT('',(20.,0.,-50.));
#553=CARTESIAN_POINT('',(0.,0.,-51.));
#554=CARTESIAN_POINT('',(0.,0.,-50.));
#555=CARTESIAN_POINT('',(16.,0.,-50.));
#556=CARTESIAN_POINT('',(0.,-20.,-50.));
#557=CARTESIAN_POINT('',(0.,0.,-46.1650635094611));
#558=CARTESIAN_POINT('',(16.,0.,-46.1650635094611));
#559=CARTESIAN_POINT('',(0.,0.,0.));
#560=CARTESIAN_POINT('',(0.,0.,-44.));
#561=CARTESIAN_POINT('',(14.75,0.,-44.));
#562=CARTESIAN_POINT('',(0.,0.,-46.1650635094611));
#563=CARTESIAN_POINT('',(0.,0.,-40.));
#564=CARTESIAN_POINT('',(14.75,0.,-40.));
#565=CARTESIAN_POINT('',(0.,0.,0.));
#566=CARTESIAN_POINT('',(0.,0.,-36.3915608175648));
#567=CARTESIAN_POINT('',(21.,0.,-36.3915608175648));
#568=CARTESIAN_POINT('',(0.,0.,-40.));
#569=CARTESIAN_POINT('',(0.,0.,-20.05));
#570=CARTESIAN_POINT('',(21.,0.,-20.05));
#571=CARTESIAN_POINT('',(0.,0.,0.));
#572=CARTESIAN_POINT('',(0.,0.,-19.05));
#573=CARTESIAN_POINT('',(22.,0.,-19.05));
#574=CARTESIAN_POINT('',(0.,0.,-20.05));
#575=CARTESIAN_POINT('',(0.,0.,-19.05));
#576=CARTESIAN_POINT('',(30.75,0.,-19.05));
#577=CARTESIAN_POINT('',(0.,-22.,-19.05));
#578=CARTESIAN_POINT('',(0.,0.,-18.05));
#579=CARTESIAN_POINT('',(31.75,0.,-18.05));
#580=CARTESIAN_POINT('',(0.,0.,-18.05));
#581=CARTESIAN_POINT('',(0.,0.,-14.6218366420567));
#582=CARTESIAN_POINT('',(31.75,0.,-14.6218366420567));
#583=CARTESIAN_POINT('',(0.,0.,0.));
#584=CARTESIAN_POINT('',(0.,0.,-13.025));
#585=CARTESIAN_POINT('',(28.9841978045701,0.,-13.025));
#586=CARTESIAN_POINT('',(0.,0.,-14.6218366420567));
#587=CARTESIAN_POINT('',(0.,0.,-13.025));
#588=CARTESIAN_POINT('',(28.,0.,-13.025));
#589=CARTESIAN_POINT('',(0.,-28.9841978045701,-13.025));
#590=CARTESIAN_POINT('',(0.,0.,-9.175));
#591=CARTESIAN_POINT('',(28.,0.,-9.175));
#592=CARTESIAN_POINT('',(0.,0.,0.));
#593=CARTESIAN_POINT('',(0.,0.,-9.175));
#594=CARTESIAN_POINT('',(28.9841978045701,0.,-9.175));
#595=CARTESIAN_POINT('',(0.,-28.,-9.175));
#596=CARTESIAN_POINT('',(0.,0.,-7.57816335794328));
#597=CARTESIAN_POINT('',(31.75,0.,-7.57816335794328));
#598=CARTESIAN_POINT('',(0.,0.,-9.175));
#599=CARTESIAN_POINT('',(0.,0.,-2.));
#600=CARTESIAN_POINT('',(31.75,0.,-2.));
#601=CARTESIAN_POINT('',(0.,0.,0.));
#602=CARTESIAN_POINT('',(0.,0.,-1.));
#603=CARTESIAN_POINT('',(30.75,0.,-1.));
#604=CARTESIAN_POINT('',(0.,0.,-2.));
#605=CARTESIAN_POINT('',(0.,0.,-1.));
#606=CARTESIAN_POINT('',(24.1,0.,-1.));
#607=CARTESIAN_POINT('',(0.,-30.75,-1.));
#608=CARTESIAN_POINT('',(0.,0.,-1.58278949353768));
#609=CARTESIAN_POINT('',(21.925,0.,-1.58278949353768));
#610=CARTESIAN_POINT('',(0.,0.,-1.));
#611=CARTESIAN_POINT('',(0.,0.,-0.428444402022636));
#612=CARTESIAN_POINT('',(21.925,0.,-0.428444402022636));
#613=CARTESIAN_POINT('',(0.,0.,0.));
#614=CARTESIAN_POINT('',(0.,0.,-6.93889390390723E-015));
#615=CARTESIAN_POINT('',(22.225,0.,-6.93889390390723E-015));
#616=CARTESIAN_POINT('',(0.,0.,-0.428444402022636));
#617=CARTESIAN_POINT('',(0.,0.,-6.93889390390723E-015));
#618=MECHANICAL_DESIGN_GEOMETRIC_PRESENTATION_REPRESENTATION('',(#332,#333,
#334,#335,#336,#337,#338,#339),#619);
#619=(
GEOMETRIC_REPRESENTATION_CONTEXT(3)
GLOBAL_UNCERTAINTY_ASSIGNED_CONTEXT((#620))
GLOBAL_UNIT_ASSIGNED_CONTEXT((#626,#622,#621))
REPRESENTATION_CONTEXT('1493025672806','TOP_LEVEL_ASSEMBLY_PART')
);
#620=UNCERTAINTY_MEASURE_WITH_UNIT(LENGTH_MEASURE(2.E-005),#626,
'DISTANCE_ACCURACY_VALUE','Maximum Tolerance applied to model');
#621=(
NAMED_UNIT(*)
SI_UNIT($,.STERADIAN.)
SOLID_ANGLE_UNIT()
);
#622=(
CONVERSION_BASED_UNIT('DEGREE',#624)
NAMED_UNIT(#623)
PLANE_ANGLE_UNIT()
);
#623=DIMENSIONAL_EXPONENTS(0.,0.,0.,0.,0.,0.,0.);
#624=PLANE_ANGLE_MEASURE_WITH_UNIT(PLANE_ANGLE_MEASURE(0.0174532925),#625);
#625=(
NAMED_UNIT(*)
PLANE_ANGLE_UNIT()
SI_UNIT($,.RADIAN.)
);
#626=(
LENGTH_UNIT()
NAMED_UNIT(*)
SI_UNIT(.MILLI.,.METRE.)
);
ENDSEC;
END-ISO-10303-21;
