ISO-10303-21;
HEADER;
FILE_DESCRIPTION(
/* description */ ('3-D model version:1'),
/* implementation_level */ '2;1');
FILE_NAME(
/* name */ '392.54005C4016045',
/* time_stamp */ '2016-12-02T13:59:05',
/* author */ ('InteractiveCad'),
/* organization */ ('AB Sandvik Coromant'),
/* preprocessor_version */ 'ST-DEVELOPER v11',
/* originating_system */ 'SIEMENS UGS NX 6.0',
/* authorization */ '');
FILE_SCHEMA(('AUTOMOTIVE_DESIGN'));
ENDSEC;
DATA;
#10=SHAPE_REPRESENTATION_RELATIONSHIP('None','relationship between 392.54005C4016045_635398897464561480_1_stp-None a\X\0Dnd 392.54005C4016045_635398897464561480_1_stp-None',
     #22,#11);
#11=ADVANCED_BREP_SHAPE_REPRESENTATION('392.54005C4016045_635398897464561480_1_stp-None',
     (#32),#665);
#12=SHAPE_DEFINITION_REPRESENTATION(#13,#22);
#13=PRODUCT_DEFINITION_SHAPE('','',#14);
#14=PRODUCT_DEFINITION(' ','',#16,#15);
#15=PRODUCT_DEFINITION_CONTEXT('part definition',#21,'design');
#16=PRODUCT_DEFINITION_FORMATION_WITH_SPECIFIED_SOURCE(' ',' ',#18,.NOT_KNOWN.);
#17=PRODUCT_RELATED_PRODUCT_CATEGORY('part','',(#18));
#18=PRODUCT('392.54005C4016045_635398897464561480_1_stp','392.54005C4016045_635398897464561480_1_stp',
     ' ',(#19));
#19=PRODUCT_CONTEXT(' ',#21,'mechanical');
#20=APPLICATION_PROTOCOL_DEFINITION('international standard','automotive_design',
     2001,#21);
#21=APPLICATION_CONTEXT('core data for automotive mechanical design processes');
#22=SHAPE_REPRESENTATION('392.54005C4016045_635398897464561480_1_stp-None',(#377),
     #665);
#23=PRESENTATION_LAYER_ASSIGNMENT('1','Layer 1',(#32));
#24=STYLED_ITEM('',(#25),#32);
#25=PRESENTATION_STYLE_ASSIGNMENT((#26));
#26=SURFACE_STYLE_USAGE(.BOTH.,#27);
#27=SURFACE_SIDE_STYLE('',(#28));
#28=SURFACE_STYLE_FILL_AREA(#29);
#29=FILL_AREA_STYLE('',(#30));
#30=FILL_AREA_STYLE_COLOUR('',#31);
#31=COLOUR_RGB('TLS_NOCUT',0.499992370489052,0.499992370489052,0.499992370489052);
#32=MANIFOLD_SOLID_BREP('NOCUT',#33);
#33=CLOSED_SHELL('',(#58,#59,#60,#61,#62,#63,#64,#65,#66,#67,#68,#69,#70,#71,#72,
     #73,#74,#75,#76,#77,#78,#79,#80,#81,#82,#83,#84,#85,#86,#87,#88,#89));
#34=CONICAL_SURFACE('',#387,12.2717837242416,8.29722000000014);
#35=CONICAL_SURFACE('',#389,22.225,35.0);
#36=CONICAL_SURFACE('',#399,31.75,60.0);
#37=CONICAL_SURFACE('',#407,28.9841978045701,60.0);
#38=CONICAL_SURFACE('',#419,16.0,45.0000000000001);
#39=CONICAL_SURFACE('',#425,7.99725,29.9999999999998);
#40=CONICAL_SURFACE('',#429,4.90414518843275,30.0);
#41=CONICAL_SURFACE('',#433,4.5,70.0000000000014);
#42=PLANE('',#383);
#43=PLANE('',#385);
#44=PLANE('',#393);
#45=PLANE('',#401);
#46=PLANE('',#405);
#47=PLANE('',#413);
#48=PLANE('',#421);
#49=PLANE('',#427);
#50=PLANE('',#437);
#51=PLANE('',#440);
#52=FACE_OUTER_BOUND('',#164,.T.);
#53=FACE_OUTER_BOUND('',#165,.T.);
#54=TOROIDAL_SURFACE('',#382,6.0,0.5);
#55=TOROIDAL_SURFACE('',#395,30.75,1.0);
#56=TOROIDAL_SURFACE('',#411,30.75,1.0);
#57=TOROIDAL_SURFACE('',#415,17.0,1.0);
#58=ADVANCED_FACE('',(#100,#101),#90,.T.);
#59=ADVANCED_FACE('',(#102,#103),#54,.T.);
#60=ADVANCED_FACE('',(#52),#42,.T.);
#61=ADVANCED_FACE('',(#53),#43,.T.);
#62=ADVANCED_FACE('',(#104,#105),#34,.T.);
#63=ADVANCED_FACE('',(#106,#107),#35,.T.);
#64=ADVANCED_FACE('',(#108,#109),#91,.T.);
#65=ADVANCED_FACE('',(#110,#111),#44,.T.);
#66=ADVANCED_FACE('',(#112,#113),#55,.T.);
#67=ADVANCED_FACE('',(#114,#115),#92,.T.);
#68=ADVANCED_FACE('',(#116,#117),#36,.T.);
#69=ADVANCED_FACE('',(#118,#119),#45,.T.);
#70=ADVANCED_FACE('',(#120,#121),#93,.T.);
#71=ADVANCED_FACE('',(#122,#123),#46,.T.);
#72=ADVANCED_FACE('',(#124,#125),#37,.T.);
#73=ADVANCED_FACE('',(#126,#127),#94,.T.);
#74=ADVANCED_FACE('',(#128,#129),#56,.T.);
#75=ADVANCED_FACE('',(#130,#131),#47,.T.);
#76=ADVANCED_FACE('',(#132,#133),#57,.F.);
#77=ADVANCED_FACE('',(#134,#135),#95,.T.);
#78=ADVANCED_FACE('',(#136,#137),#38,.T.);
#79=ADVANCED_FACE('',(#138,#139),#48,.T.);
#80=ADVANCED_FACE('',(#140,#141),#96,.T.);
#81=ADVANCED_FACE('',(#142,#143),#39,.T.);
#82=ADVANCED_FACE('',(#144,#145),#49,.T.);
#83=ADVANCED_FACE('',(#146,#147),#40,.F.);
#84=ADVANCED_FACE('',(#148,#149),#97,.F.);
#85=ADVANCED_FACE('',(#150,#151),#41,.F.);
#86=ADVANCED_FACE('',(#152,#153),#98,.T.);
#87=ADVANCED_FACE('',(#154,#155),#50,.T.);
#88=ADVANCED_FACE('',(#156,#157),#99,.T.);
#89=ADVANCED_FACE('',(#158,#159),#51,.T.);
#90=CYLINDRICAL_SURFACE('',#380,6.50000000000001);
#91=CYLINDRICAL_SURFACE('',#391,21.925);
#92=CYLINDRICAL_SURFACE('',#397,31.75);
#93=CYLINDRICAL_SURFACE('',#403,28.0);
#94=CYLINDRICAL_SURFACE('',#409,31.75);
#95=CYLINDRICAL_SURFACE('',#417,16.0);
#96=CYLINDRICAL_SURFACE('',#423,7.99725);
#97=CYLINDRICAL_SURFACE('',#431,4.5);
#98=CYLINDRICAL_SURFACE('',#435,4.0);
#99=CYLINDRICAL_SURFACE('',#439,10.0);
#100=FACE_BOUND('',#160,.T.);
#101=FACE_BOUND('',#161,.T.);
#102=FACE_BOUND('',#162,.T.);
#103=FACE_BOUND('',#163,.T.);
#104=FACE_BOUND('',#166,.T.);
#105=FACE_BOUND('',#167,.T.);
#106=FACE_BOUND('',#168,.T.);
#107=FACE_BOUND('',#169,.T.);
#108=FACE_BOUND('',#170,.T.);
#109=FACE_BOUND('',#171,.T.);
#110=FACE_BOUND('',#172,.T.);
#111=FACE_BOUND('',#173,.T.);
#112=FACE_BOUND('',#174,.T.);
#113=FACE_BOUND('',#175,.T.);
#114=FACE_BOUND('',#176,.T.);
#115=FACE_BOUND('',#177,.T.);
#116=FACE_BOUND('',#178,.T.);
#117=FACE_BOUND('',#179,.T.);
#118=FACE_BOUND('',#180,.T.);
#119=FACE_BOUND('',#181,.T.);
#120=FACE_BOUND('',#182,.T.);
#121=FACE_BOUND('',#183,.T.);
#122=FACE_BOUND('',#184,.T.);
#123=FACE_BOUND('',#185,.T.);
#124=FACE_BOUND('',#186,.T.);
#125=FACE_BOUND('',#187,.T.);
#126=FACE_BOUND('',#188,.T.);
#127=FACE_BOUND('',#189,.T.);
#128=FACE_BOUND('',#190,.T.);
#129=FACE_BOUND('',#191,.T.);
#130=FACE_BOUND('',#192,.T.);
#131=FACE_BOUND('',#193,.T.);
#132=FACE_BOUND('',#194,.T.);
#133=FACE_BOUND('',#195,.T.);
#134=FACE_BOUND('',#196,.T.);
#135=FACE_BOUND('',#197,.T.);
#136=FACE_BOUND('',#198,.T.);
#137=FACE_BOUND('',#199,.T.);
#138=FACE_BOUND('',#200,.T.);
#139=FACE_BOUND('',#201,.T.);
#140=FACE_BOUND('',#202,.T.);
#141=FACE_BOUND('',#203,.T.);
#142=FACE_BOUND('',#204,.T.);
#143=FACE_BOUND('',#205,.T.);
#144=FACE_BOUND('',#206,.T.);
#145=FACE_BOUND('',#207,.T.);
#146=FACE_BOUND('',#208,.T.);
#147=FACE_BOUND('',#209,.T.);
#148=FACE_BOUND('',#210,.T.);
#149=FACE_BOUND('',#211,.T.);
#150=FACE_BOUND('',#212,.T.);
#151=FACE_BOUND('',#213,.T.);
#152=FACE_BOUND('',#214,.T.);
#153=FACE_BOUND('',#215,.T.);
#154=FACE_BOUND('',#216,.T.);
#155=FACE_BOUND('',#217,.T.);
#156=FACE_BOUND('',#218,.T.);
#157=FACE_BOUND('',#219,.T.);
#158=FACE_BOUND('',#220,.T.);
#159=FACE_BOUND('',#221,.T.);
#160=EDGE_LOOP('',(#222));
#161=EDGE_LOOP('',(#223));
#162=EDGE_LOOP('',(#224));
#163=EDGE_LOOP('',(#225));
#164=EDGE_LOOP('',(#226));
#165=EDGE_LOOP('',(#227));
#166=EDGE_LOOP('',(#228));
#167=EDGE_LOOP('',(#229));
#168=EDGE_LOOP('',(#230));
#169=EDGE_LOOP('',(#231));
#170=EDGE_LOOP('',(#232));
#171=EDGE_LOOP('',(#233));
#172=EDGE_LOOP('',(#234));
#173=EDGE_LOOP('',(#235));
#174=EDGE_LOOP('',(#236));
#175=EDGE_LOOP('',(#237));
#176=EDGE_LOOP('',(#238));
#177=EDGE_LOOP('',(#239));
#178=EDGE_LOOP('',(#240));
#179=EDGE_LOOP('',(#241));
#180=EDGE_LOOP('',(#242));
#181=EDGE_LOOP('',(#243));
#182=EDGE_LOOP('',(#244));
#183=EDGE_LOOP('',(#245));
#184=EDGE_LOOP('',(#246));
#185=EDGE_LOOP('',(#247));
#186=EDGE_LOOP('',(#248));
#187=EDGE_LOOP('',(#249));
#188=EDGE_LOOP('',(#250));
#189=EDGE_LOOP('',(#251));
#190=EDGE_LOOP('',(#252));
#191=EDGE_LOOP('',(#253));
#192=EDGE_LOOP('',(#254));
#193=EDGE_LOOP('',(#255));
#194=EDGE_LOOP('',(#256));
#195=EDGE_LOOP('',(#257));
#196=EDGE_LOOP('',(#258));
#197=EDGE_LOOP('',(#259));
#198=EDGE_LOOP('',(#260));
#199=EDGE_LOOP('',(#261));
#200=EDGE_LOOP('',(#262));
#201=EDGE_LOOP('',(#263));
#202=EDGE_LOOP('',(#264));
#203=EDGE_LOOP('',(#265));
#204=EDGE_LOOP('',(#266));
#205=EDGE_LOOP('',(#267));
#206=EDGE_LOOP('',(#268));
#207=EDGE_LOOP('',(#269));
#208=EDGE_LOOP('',(#270));
#209=EDGE_LOOP('',(#271));
#210=EDGE_LOOP('',(#272));
#211=EDGE_LOOP('',(#273));
#212=EDGE_LOOP('',(#274));
#213=EDGE_LOOP('',(#275));
#214=EDGE_LOOP('',(#276));
#215=EDGE_LOOP('',(#277));
#216=EDGE_LOOP('',(#278));
#217=EDGE_LOOP('',(#279));
#218=EDGE_LOOP('',(#280));
#219=EDGE_LOOP('',(#281));
#220=EDGE_LOOP('',(#282));
#221=EDGE_LOOP('',(#283));
#222=ORIENTED_EDGE('',*,*,#315,.T.);
#223=ORIENTED_EDGE('',*,*,#316,.F.);
#224=ORIENTED_EDGE('',*,*,#317,.T.);
#225=ORIENTED_EDGE('',*,*,#315,.F.);
#226=ORIENTED_EDGE('',*,*,#317,.F.);
#227=ORIENTED_EDGE('',*,*,#318,.T.);
#228=ORIENTED_EDGE('',*,*,#319,.T.);
#229=ORIENTED_EDGE('',*,*,#318,.F.);
#230=ORIENTED_EDGE('',*,*,#320,.T.);
#231=ORIENTED_EDGE('',*,*,#319,.F.);
#232=ORIENTED_EDGE('',*,*,#321,.T.);
#233=ORIENTED_EDGE('',*,*,#320,.F.);
#234=ORIENTED_EDGE('',*,*,#322,.T.);
#235=ORIENTED_EDGE('',*,*,#321,.F.);
#236=ORIENTED_EDGE('',*,*,#323,.T.);
#237=ORIENTED_EDGE('',*,*,#322,.F.);
#238=ORIENTED_EDGE('',*,*,#324,.T.);
#239=ORIENTED_EDGE('',*,*,#323,.F.);
#240=ORIENTED_EDGE('',*,*,#325,.T.);
#241=ORIENTED_EDGE('',*,*,#324,.F.);
#242=ORIENTED_EDGE('',*,*,#326,.T.);
#243=ORIENTED_EDGE('',*,*,#325,.F.);
#244=ORIENTED_EDGE('',*,*,#327,.T.);
#245=ORIENTED_EDGE('',*,*,#326,.F.);
#246=ORIENTED_EDGE('',*,*,#328,.T.);
#247=ORIENTED_EDGE('',*,*,#327,.F.);
#248=ORIENTED_EDGE('',*,*,#329,.T.);
#249=ORIENTED_EDGE('',*,*,#328,.F.);
#250=ORIENTED_EDGE('',*,*,#330,.T.);
#251=ORIENTED_EDGE('',*,*,#329,.F.);
#252=ORIENTED_EDGE('',*,*,#331,.T.);
#253=ORIENTED_EDGE('',*,*,#330,.F.);
#254=ORIENTED_EDGE('',*,*,#332,.T.);
#255=ORIENTED_EDGE('',*,*,#331,.F.);
#256=ORIENTED_EDGE('',*,*,#333,.T.);
#257=ORIENTED_EDGE('',*,*,#332,.F.);
#258=ORIENTED_EDGE('',*,*,#334,.T.);
#259=ORIENTED_EDGE('',*,*,#333,.F.);
#260=ORIENTED_EDGE('',*,*,#335,.T.);
#261=ORIENTED_EDGE('',*,*,#334,.F.);
#262=ORIENTED_EDGE('',*,*,#336,.T.);
#263=ORIENTED_EDGE('',*,*,#335,.F.);
#264=ORIENTED_EDGE('',*,*,#337,.T.);
#265=ORIENTED_EDGE('',*,*,#336,.F.);
#266=ORIENTED_EDGE('',*,*,#338,.T.);
#267=ORIENTED_EDGE('',*,*,#337,.F.);
#268=ORIENTED_EDGE('',*,*,#339,.T.);
#269=ORIENTED_EDGE('',*,*,#338,.F.);
#270=ORIENTED_EDGE('',*,*,#340,.T.);
#271=ORIENTED_EDGE('',*,*,#339,.F.);
#272=ORIENTED_EDGE('',*,*,#341,.T.);
#273=ORIENTED_EDGE('',*,*,#340,.F.);
#274=ORIENTED_EDGE('',*,*,#342,.T.);
#275=ORIENTED_EDGE('',*,*,#341,.F.);
#276=ORIENTED_EDGE('',*,*,#343,.T.);
#277=ORIENTED_EDGE('',*,*,#342,.F.);
#278=ORIENTED_EDGE('',*,*,#344,.T.);
#279=ORIENTED_EDGE('',*,*,#343,.F.);
#280=ORIENTED_EDGE('',*,*,#345,.T.);
#281=ORIENTED_EDGE('',*,*,#344,.F.);
#282=ORIENTED_EDGE('',*,*,#316,.T.);
#283=ORIENTED_EDGE('',*,*,#345,.F.);
#284=VERTEX_POINT('',#571);
#285=VERTEX_POINT('',#573);
#286=VERTEX_POINT('',#576);
#287=VERTEX_POINT('',#580);
#288=VERTEX_POINT('',#583);
#289=VERTEX_POINT('',#586);
#290=VERTEX_POINT('',#589);
#291=VERTEX_POINT('',#592);
#292=VERTEX_POINT('',#595);
#293=VERTEX_POINT('',#598);
#294=VERTEX_POINT('',#601);
#295=VERTEX_POINT('',#604);
#296=VERTEX_POINT('',#607);
#297=VERTEX_POINT('',#610);
#298=VERTEX_POINT('',#613);
#299=VERTEX_POINT('',#616);
#300=VERTEX_POINT('',#619);
#301=VERTEX_POINT('',#622);
#302=VERTEX_POINT('',#625);
#303=VERTEX_POINT('',#628);
#304=VERTEX_POINT('',#631);
#305=VERTEX_POINT('',#634);
#306=VERTEX_POINT('',#637);
#307=VERTEX_POINT('',#640);
#308=VERTEX_POINT('',#643);
#309=VERTEX_POINT('',#646);
#310=VERTEX_POINT('',#649);
#311=VERTEX_POINT('',#652);
#312=VERTEX_POINT('',#655);
#313=VERTEX_POINT('',#658);
#314=VERTEX_POINT('',#661);
#315=EDGE_CURVE('',#284,#284,#346,.T.);
#316=EDGE_CURVE('',#285,#285,#347,.T.);
#317=EDGE_CURVE('',#286,#286,#348,.T.);
#318=EDGE_CURVE('',#287,#287,#349,.T.);
#319=EDGE_CURVE('',#288,#288,#350,.T.);
#320=EDGE_CURVE('',#289,#289,#351,.T.);
#321=EDGE_CURVE('',#290,#290,#352,.T.);
#322=EDGE_CURVE('',#291,#291,#353,.T.);
#323=EDGE_CURVE('',#292,#292,#354,.T.);
#324=EDGE_CURVE('',#293,#293,#355,.T.);
#325=EDGE_CURVE('',#294,#294,#356,.T.);
#326=EDGE_CURVE('',#295,#295,#357,.T.);
#327=EDGE_CURVE('',#296,#296,#358,.T.);
#328=EDGE_CURVE('',#297,#297,#359,.T.);
#329=EDGE_CURVE('',#298,#298,#360,.T.);
#330=EDGE_CURVE('',#299,#299,#361,.T.);
#331=EDGE_CURVE('',#300,#300,#362,.T.);
#332=EDGE_CURVE('',#301,#301,#363,.T.);
#333=EDGE_CURVE('',#302,#302,#364,.T.);
#334=EDGE_CURVE('',#303,#303,#365,.T.);
#335=EDGE_CURVE('',#304,#304,#366,.T.);
#336=EDGE_CURVE('',#305,#305,#367,.T.);
#337=EDGE_CURVE('',#306,#306,#368,.T.);
#338=EDGE_CURVE('',#307,#307,#369,.T.);
#339=EDGE_CURVE('',#308,#308,#370,.T.);
#340=EDGE_CURVE('',#309,#309,#371,.T.);
#341=EDGE_CURVE('',#310,#310,#372,.T.);
#342=EDGE_CURVE('',#311,#311,#373,.T.);
#343=EDGE_CURVE('',#312,#312,#374,.T.);
#344=EDGE_CURVE('',#313,#313,#375,.T.);
#345=EDGE_CURVE('',#314,#314,#376,.T.);
#346=CIRCLE('',#378,6.5);
#347=CIRCLE('',#379,6.50000000000001);
#348=CIRCLE('',#381,6.0);
#349=CIRCLE('',#384,12.2717837242416);
#350=CIRCLE('',#386,22.225);
#351=CIRCLE('',#388,21.925);
#352=CIRCLE('',#390,21.925);
#353=CIRCLE('',#392,30.75);
#354=CIRCLE('',#394,31.75);
#355=CIRCLE('',#396,31.75);
#356=CIRCLE('',#398,28.9841978045701);
#357=CIRCLE('',#400,28.0);
#358=CIRCLE('',#402,28.0);
#359=CIRCLE('',#404,28.9841978045701);
#360=CIRCLE('',#406,31.75);
#361=CIRCLE('',#408,31.75);
#362=CIRCLE('',#410,30.75);
#363=CIRCLE('',#412,17.0);
#364=CIRCLE('',#414,16.0);
#365=CIRCLE('',#416,16.0);
#366=CIRCLE('',#418,15.4);
#367=CIRCLE('',#420,7.99725);
#368=CIRCLE('',#422,7.99725);
#369=CIRCLE('',#424,7.41989973081038);
#370=CIRCLE('',#426,4.90414518843275);
#371=CIRCLE('',#428,4.5);
#372=CIRCLE('',#430,4.5);
#373=CIRCLE('',#432,4.0);
#374=CIRCLE('',#434,4.00000000000001);
#375=CIRCLE('',#436,10.0);
#376=CIRCLE('',#438,10.0);
#377=AXIS2_PLACEMENT_3D('',#569,#441,#442);
#378=AXIS2_PLACEMENT_3D('',#570,#443,#444);
#379=AXIS2_PLACEMENT_3D('',#572,#445,#446);
#380=AXIS2_PLACEMENT_3D('',#574,#447,#448);
#381=AXIS2_PLACEMENT_3D('',#575,#449,#450);
#382=AXIS2_PLACEMENT_3D('',#577,#451,#452);
#383=AXIS2_PLACEMENT_3D('',#578,#453,#454);
#384=AXIS2_PLACEMENT_3D('',#579,#455,#456);
#385=AXIS2_PLACEMENT_3D('',#581,#457,#458);
#386=AXIS2_PLACEMENT_3D('',#582,#459,#460);
#387=AXIS2_PLACEMENT_3D('',#584,#461,#462);
#388=AXIS2_PLACEMENT_3D('',#585,#463,#464);
#389=AXIS2_PLACEMENT_3D('',#587,#465,#466);
#390=AXIS2_PLACEMENT_3D('',#588,#467,#468);
#391=AXIS2_PLACEMENT_3D('',#590,#469,#470);
#392=AXIS2_PLACEMENT_3D('',#591,#471,#472);
#393=AXIS2_PLACEMENT_3D('',#593,#473,#474);
#394=AXIS2_PLACEMENT_3D('',#594,#475,#476);
#395=AXIS2_PLACEMENT_3D('',#596,#477,#478);
#396=AXIS2_PLACEMENT_3D('',#597,#479,#480);
#397=AXIS2_PLACEMENT_3D('',#599,#481,#482);
#398=AXIS2_PLACEMENT_3D('',#600,#483,#484);
#399=AXIS2_PLACEMENT_3D('',#602,#485,#486);
#400=AXIS2_PLACEMENT_3D('',#603,#487,#488);
#401=AXIS2_PLACEMENT_3D('',#605,#489,#490);
#402=AXIS2_PLACEMENT_3D('',#606,#491,#492);
#403=AXIS2_PLACEMENT_3D('',#608,#493,#494);
#404=AXIS2_PLACEMENT_3D('',#609,#495,#496);
#405=AXIS2_PLACEMENT_3D('',#611,#497,#498);
#406=AXIS2_PLACEMENT_3D('',#612,#499,#500);
#407=AXIS2_PLACEMENT_3D('',#614,#501,#502);
#408=AXIS2_PLACEMENT_3D('',#615,#503,#504);
#409=AXIS2_PLACEMENT_3D('',#617,#505,#506);
#410=AXIS2_PLACEMENT_3D('',#618,#507,#508);
#411=AXIS2_PLACEMENT_3D('',#620,#509,#510);
#412=AXIS2_PLACEMENT_3D('',#621,#511,#512);
#413=AXIS2_PLACEMENT_3D('',#623,#513,#514);
#414=AXIS2_PLACEMENT_3D('',#624,#515,#516);
#415=AXIS2_PLACEMENT_3D('',#626,#517,#518);
#416=AXIS2_PLACEMENT_3D('',#627,#519,#520);
#417=AXIS2_PLACEMENT_3D('',#629,#521,#522);
#418=AXIS2_PLACEMENT_3D('',#630,#523,#524);
#419=AXIS2_PLACEMENT_3D('',#632,#525,#526);
#420=AXIS2_PLACEMENT_3D('',#633,#527,#528);
#421=AXIS2_PLACEMENT_3D('',#635,#529,#530);
#422=AXIS2_PLACEMENT_3D('',#636,#531,#532);
#423=AXIS2_PLACEMENT_3D('',#638,#533,#534);
#424=AXIS2_PLACEMENT_3D('',#639,#535,#536);
#425=AXIS2_PLACEMENT_3D('',#641,#537,#538);
#426=AXIS2_PLACEMENT_3D('',#642,#539,#540);
#427=AXIS2_PLACEMENT_3D('',#644,#541,#542);
#428=AXIS2_PLACEMENT_3D('',#645,#543,#544);
#429=AXIS2_PLACEMENT_3D('',#647,#545,#546);
#430=AXIS2_PLACEMENT_3D('',#648,#547,#548);
#431=AXIS2_PLACEMENT_3D('',#650,#549,#550);
#432=AXIS2_PLACEMENT_3D('',#651,#551,#552);
#433=AXIS2_PLACEMENT_3D('',#653,#553,#554);
#434=AXIS2_PLACEMENT_3D('',#654,#555,#556);
#435=AXIS2_PLACEMENT_3D('',#656,#557,#558);
#436=AXIS2_PLACEMENT_3D('',#657,#559,#560);
#437=AXIS2_PLACEMENT_3D('',#659,#561,#562);
#438=AXIS2_PLACEMENT_3D('',#660,#563,#564);
#439=AXIS2_PLACEMENT_3D('',#662,#565,#566);
#440=AXIS2_PLACEMENT_3D('',#663,#567,#568);
#441=DIRECTION('',(0.0,0.0,1.0));
#442=DIRECTION('',(1.0,0.0,0.0));
#443=DIRECTION('',(0.0,0.0,1.0));
#444=DIRECTION('',(1.0,0.0,0.0));
#445=DIRECTION('',(0.0,0.0,1.0));
#446=DIRECTION('',(1.0,0.0,0.0));
#447=DIRECTION('',(0.0,0.0,1.0));
#448=DIRECTION('',(1.0,0.0,0.0));
#449=DIRECTION('',(0.0,0.0,1.0));
#450=DIRECTION('',(1.0,0.0,0.0));
#451=DIRECTION('',(0.0,0.0,1.0));
#452=DIRECTION('',(1.0,0.0,0.0));
#453=DIRECTION('',(0.0,0.0,-1.0));
#454=DIRECTION('',(-1.0,0.0,0.0));
#455=DIRECTION('',(0.0,0.0,1.0));
#456=DIRECTION('',(1.0,0.0,0.0));
#457=DIRECTION('',(0.0,0.0,1.0));
#458=DIRECTION('',(1.0,0.0,0.0));
#459=DIRECTION('',(0.0,0.0,1.0));
#460=DIRECTION('',(1.0,0.0,0.0));
#461=DIRECTION('',(0.0,0.0,-1.0));
#462=DIRECTION('',(-1.0,0.0,1.75549921193666E-16));
#463=DIRECTION('',(0.0,0.0,1.0));
#464=DIRECTION('',(1.0,0.0,0.0));
#465=DIRECTION('',(0.0,0.0,1.0));
#466=DIRECTION('',(1.0,0.0,0.0));
#467=DIRECTION('',(0.0,0.0,1.0));
#468=DIRECTION('',(1.0,0.0,0.0));
#469=DIRECTION('',(0.0,0.0,1.0));
#470=DIRECTION('',(1.0,0.0,0.0));
#471=DIRECTION('',(0.0,0.0,1.0));
#472=DIRECTION('',(1.0,0.0,0.0));
#473=DIRECTION('',(0.0,0.0,1.0));
#474=DIRECTION('',(1.0,0.0,0.0));
#475=DIRECTION('',(0.0,0.0,1.0));
#476=DIRECTION('',(1.0,0.0,0.0));
#477=DIRECTION('',(0.0,0.0,1.0));
#478=DIRECTION('',(1.0,0.0,0.0));
#479=DIRECTION('',(0.0,0.0,1.0));
#480=DIRECTION('',(1.0,0.0,0.0));
#481=DIRECTION('',(0.0,0.0,1.0));
#482=DIRECTION('',(1.0,0.0,0.0));
#483=DIRECTION('',(0.0,0.0,1.0));
#484=DIRECTION('',(1.0,0.0,0.0));
#485=DIRECTION('',(0.0,0.0,1.0));
#486=DIRECTION('',(1.0,0.0,1.32774442698924E-17));
#487=DIRECTION('',(0.0,0.0,1.0));
#488=DIRECTION('',(1.0,0.0,0.0));
#489=DIRECTION('',(0.0,0.0,-1.0));
#490=DIRECTION('',(-1.0,0.0,0.0));
#491=DIRECTION('',(0.0,0.0,1.0));
#492=DIRECTION('',(1.0,0.0,0.0));
#493=DIRECTION('',(0.0,0.0,1.0));
#494=DIRECTION('',(1.0,0.0,0.0));
#495=DIRECTION('',(0.0,0.0,1.0));
#496=DIRECTION('',(1.0,0.0,0.0));
#497=DIRECTION('',(0.0,0.0,1.0));
#498=DIRECTION('',(1.0,0.0,0.0));
#499=DIRECTION('',(0.0,0.0,1.0));
#500=DIRECTION('',(1.0,0.0,0.0));
#501=DIRECTION('',(0.0,0.0,-1.0));
#502=DIRECTION('',(-1.0,0.0,-3.6447184987973E-17));
#503=DIRECTION('',(0.0,0.0,1.0));
#504=DIRECTION('',(1.0,0.0,0.0));
#505=DIRECTION('',(0.0,0.0,1.0));
#506=DIRECTION('',(1.0,0.0,0.0));
#507=DIRECTION('',(0.0,0.0,1.0));
#508=DIRECTION('',(1.0,0.0,0.0));
#509=DIRECTION('',(0.0,0.0,1.0));
#510=DIRECTION('',(1.0,0.0,0.0));
#511=DIRECTION('',(0.0,0.0,1.0));
#512=DIRECTION('',(1.0,0.0,0.0));
#513=DIRECTION('',(0.0,0.0,-1.0));
#514=DIRECTION('',(-1.0,0.0,0.0));
#515=DIRECTION('',(0.0,0.0,1.0));
#516=DIRECTION('',(1.0,0.0,0.0));
#517=DIRECTION('',(0.0,0.0,1.0));
#518=DIRECTION('',(1.0,0.0,0.0));
#519=DIRECTION('',(0.0,0.0,1.0));
#520=DIRECTION('',(1.0,0.0,0.0));
#521=DIRECTION('',(0.0,0.0,1.0));
#522=DIRECTION('',(1.0,0.0,0.0));
#523=DIRECTION('',(0.0,0.0,1.0));
#524=DIRECTION('',(1.0,0.0,0.0));
#525=DIRECTION('',(0.0,0.0,1.0));
#526=DIRECTION('',(1.0,0.0,0.0));
#527=DIRECTION('',(0.0,0.0,1.0));
#528=DIRECTION('',(1.0,0.0,0.0));
#529=DIRECTION('',(0.0,0.0,-1.0));
#530=DIRECTION('',(-1.0,0.0,0.0));
#531=DIRECTION('',(0.0,0.0,1.0));
#532=DIRECTION('',(1.0,0.0,0.0));
#533=DIRECTION('',(0.0,0.0,1.0));
#534=DIRECTION('',(1.0,0.0,0.0));
#535=DIRECTION('',(0.0,0.0,1.0));
#536=DIRECTION('',(1.0,0.0,0.0));
#537=DIRECTION('',(0.0,0.0,1.0));
#538=DIRECTION('',(1.0,0.0,-8.29802053224657E-17));
#539=DIRECTION('',(0.0,0.0,1.0));
#540=DIRECTION('',(1.0,0.0,0.0));
#541=DIRECTION('',(0.0,0.0,-1.0));
#542=DIRECTION('',(-1.0,0.0,0.0));
#543=DIRECTION('',(0.0,0.0,1.0));
#544=DIRECTION('',(1.0,0.0,0.0));
#545=DIRECTION('',(0.0,0.0,-1.0));
#546=DIRECTION('',(-1.0,0.0,-8.34210203098821E-17));
#547=DIRECTION('',(0.0,0.0,1.0));
#548=DIRECTION('',(1.0,0.0,0.0));
#549=DIRECTION('',(0.0,0.0,1.0));
#550=DIRECTION('',(1.0,0.0,0.0));
#551=DIRECTION('',(0.0,0.0,1.0));
#552=DIRECTION('',(1.0,0.0,0.0));
#553=DIRECTION('',(0.0,0.0,-1.0));
#554=DIRECTION('',(-1.0,0.0,-1.26071054487101E-17));
#555=DIRECTION('',(0.0,0.0,1.0));
#556=DIRECTION('',(1.0,0.0,0.0));
#557=DIRECTION('',(0.0,0.0,1.0));
#558=DIRECTION('',(1.0,0.0,0.0));
#559=DIRECTION('',(0.0,0.0,1.0));
#560=DIRECTION('',(1.0,0.0,0.0));
#561=DIRECTION('',(0.0,0.0,1.0));
#562=DIRECTION('',(1.0,0.0,0.0));
#563=DIRECTION('',(0.0,0.0,1.0));
#564=DIRECTION('',(1.0,0.0,0.0));
#565=DIRECTION('',(0.0,0.0,1.0));
#566=DIRECTION('',(1.0,0.0,0.0));
#567=DIRECTION('',(0.0,0.0,-1.0));
#568=DIRECTION('',(-1.0,0.0,0.0));
#569=CARTESIAN_POINT('',(0.0,0.0,0.0));
#570=CARTESIAN_POINT('',(0.0,0.0,-69.25));
#571=CARTESIAN_POINT('',(6.5,0.0,-69.25));
#572=CARTESIAN_POINT('',(0.0,0.0,-66.0));
#573=CARTESIAN_POINT('',(6.50000000000001,0.0,-66.0));
#574=CARTESIAN_POINT('',(0.0,0.0,0.0));
#575=CARTESIAN_POINT('',(0.0,0.0,-69.75));
#576=CARTESIAN_POINT('',(6.0,0.0,-69.75));
#577=CARTESIAN_POINT('',(0.0,0.0,-69.25));
#578=CARTESIAN_POINT('',(-1.56444507245892E-15,6.0,-69.75));
#579=CARTESIAN_POINT('',(0.0,0.0,68.25));
#580=CARTESIAN_POINT('',(12.2717837242416,0.0,68.25));
#581=CARTESIAN_POINT('',(0.0,10.0045,68.25));
#582=CARTESIAN_POINT('',(0.0,0.0,0.0));
#583=CARTESIAN_POINT('',(22.225,0.0,0.0));
#584=CARTESIAN_POINT('',(0.0,0.0,68.25));
#585=CARTESIAN_POINT('',(0.0,0.0,-0.428444402022637));
#586=CARTESIAN_POINT('',(21.925,0.0,-0.428444402022637));
#587=CARTESIAN_POINT('',(0.0,0.0,0.0));
#588=CARTESIAN_POINT('',(0.0,0.0,-1.0));
#589=CARTESIAN_POINT('',(21.925,0.0,-1.0));
#590=CARTESIAN_POINT('',(0.0,0.0,0.0));
#591=CARTESIAN_POINT('',(0.0,0.0,-1.0));
#592=CARTESIAN_POINT('',(30.75,0.0,-1.0));
#593=CARTESIAN_POINT('',(0.0,21.925,-1.0));
#594=CARTESIAN_POINT('',(0.0,0.0,-2.0));
#595=CARTESIAN_POINT('',(31.75,0.0,-2.0));
#596=CARTESIAN_POINT('',(0.0,0.0,-2.0));
#597=CARTESIAN_POINT('',(0.0,0.0,-7.57816335794328));
#598=CARTESIAN_POINT('',(31.75,0.0,-7.57816335794328));
#599=CARTESIAN_POINT('',(0.0,0.0,0.0));
#600=CARTESIAN_POINT('',(0.0,0.0,-9.175));
#601=CARTESIAN_POINT('',(28.9841978045701,0.0,-9.175));
#602=CARTESIAN_POINT('',(0.0,0.0,-7.57816335794328));
#603=CARTESIAN_POINT('',(0.0,0.0,-9.175));
#604=CARTESIAN_POINT('',(28.0,0.0,-9.175));
#605=CARTESIAN_POINT('',(0.0,28.9841978045701,-9.175));
#606=CARTESIAN_POINT('',(0.0,0.0,-13.025));
#607=CARTESIAN_POINT('',(28.0,0.0,-13.025));
#608=CARTESIAN_POINT('',(0.0,0.0,0.0));
#609=CARTESIAN_POINT('',(0.0,0.0,-13.025));
#610=CARTESIAN_POINT('',(28.9841978045701,0.0,-13.025));
#611=CARTESIAN_POINT('',(0.0,28.0,-13.025));
#612=CARTESIAN_POINT('',(0.0,0.0,-14.6218366420567));
#613=CARTESIAN_POINT('',(31.75,0.0,-14.6218366420567));
#614=CARTESIAN_POINT('',(0.0,0.0,-13.025));
#615=CARTESIAN_POINT('',(0.0,0.0,-18.05));
#616=CARTESIAN_POINT('',(31.75,0.0,-18.05));
#617=CARTESIAN_POINT('',(0.0,0.0,0.0));
#618=CARTESIAN_POINT('',(0.0,0.0,-19.05));
#619=CARTESIAN_POINT('',(30.75,0.0,-19.05));
#620=CARTESIAN_POINT('',(0.0,0.0,-18.05));
#621=CARTESIAN_POINT('',(0.0,0.0,-19.05));
#622=CARTESIAN_POINT('',(17.0,0.0,-19.05));
#623=CARTESIAN_POINT('',(0.0,30.75,-19.05));
#624=CARTESIAN_POINT('',(0.0,0.0,-20.05));
#625=CARTESIAN_POINT('',(16.0,0.0,-20.05));
#626=CARTESIAN_POINT('',(0.0,0.0,-20.05));
#627=CARTESIAN_POINT('',(0.0,0.0,-49.4));
#628=CARTESIAN_POINT('',(16.0,0.0,-49.4));
#629=CARTESIAN_POINT('',(0.0,0.0,0.0));
#630=CARTESIAN_POINT('',(0.0,0.0,-50.0));
#631=CARTESIAN_POINT('',(15.4,0.0,-50.0));
#632=CARTESIAN_POINT('',(0.0,0.0,-49.4));
#633=CARTESIAN_POINT('',(0.0,0.0,-50.0));
#634=CARTESIAN_POINT('',(7.99725,0.0,-50.0));
#635=CARTESIAN_POINT('',(0.0,9.75,-50.0));
#636=CARTESIAN_POINT('',(0.0,0.0,-55.0));
#637=CARTESIAN_POINT('',(7.99725,0.0,-55.0));
#638=CARTESIAN_POINT('',(0.0,0.0,0.0));
#639=CARTESIAN_POINT('',(0.0,0.0,-56.0));
#640=CARTESIAN_POINT('',(7.41989973081038,0.0,-56.0));
#641=CARTESIAN_POINT('',(0.0,0.0,-55.0));
#642=CARTESIAN_POINT('',(0.0,0.0,-56.0));
#643=CARTESIAN_POINT('',(4.90414518843275,0.0,-56.0));
#644=CARTESIAN_POINT('',(0.0,7.41989973081037,-56.0));
#645=CARTESIAN_POINT('',(0.0,0.0,-55.3));
#646=CARTESIAN_POINT('',(4.5,0.0,-55.3));
#647=CARTESIAN_POINT('',(0.0,0.0,-56.0));
#648=CARTESIAN_POINT('',(0.0,0.0,-52.0));
#649=CARTESIAN_POINT('',(4.5,0.0,-52.0));
#650=CARTESIAN_POINT('',(0.0,0.0,0.0));
#651=CARTESIAN_POINT('',(0.0,0.0,-51.8180148828669));
#652=CARTESIAN_POINT('',(4.0,0.0,-51.8180148828669));
#653=CARTESIAN_POINT('',(0.0,0.0,-52.0));
#654=CARTESIAN_POINT('',(0.0,0.0,-61.0));
#655=CARTESIAN_POINT('',(4.00000000000001,0.0,-61.0));
#656=CARTESIAN_POINT('',(0.0,0.0,0.0));
#657=CARTESIAN_POINT('',(0.0,0.0,-61.0));
#658=CARTESIAN_POINT('',(10.0,0.0,-61.0));
#659=CARTESIAN_POINT('',(0.0,4.00000000000001,-61.0));
#660=CARTESIAN_POINT('',(0.0,0.0,-66.0));
#661=CARTESIAN_POINT('',(10.0,0.0,-66.0));
#662=CARTESIAN_POINT('',(0.0,0.0,0.0));
#663=CARTESIAN_POINT('',(0.0,10.0,-66.0));
#664=MECHANICAL_DESIGN_GEOMETRIC_PRESENTATION_REPRESENTATION('',(#24),#665);
#665=(GEOMETRIC_REPRESENTATION_CONTEXT(3)GLOBAL_UNCERTAINTY_ASSIGNED_CONTEXT((#666))
     GLOBAL_UNIT_ASSIGNED_CONTEXT((#672,#668,#667))REPRESENTATION_CONTEXT('392','TOP_LEVEL_ASSEMBLY_PART'));
#666=UNCERTAINTY_MEASURE_WITH_UNIT(LENGTH_MEASURE(2.0E-5),#672,'DISTANCE_ACCURACY_VALUE',
     'Maximum Tolerance applied to model');
#667=(NAMED_UNIT(*)SI_UNIT($,.STERADIAN.)SOLID_ANGLE_UNIT());
#668=(CONVERSION_BASED_UNIT('DEGREE',#670)NAMED_UNIT(*)PLANE_ANGLE_UNIT());
#669=DIMENSIONAL_EXPONENTS(0.0,0.0,0.0,0.0,0.0,0.0,0.0);
#670=PLANE_ANGLE_MEASURE_WITH_UNIT(PLANE_ANGLE_MEASURE(0.0174532925),#671);
#671=(NAMED_UNIT(*)PLANE_ANGLE_UNIT()SI_UNIT($,.RADIAN.));
#672=(LENGTH_UNIT()NAMED_UNIT(*)SI_UNIT(.MILLI.,.METRE.));
#673=CARTESIAN_POINT('',(0.0,0.0,0.0));
#674=DIRECTION('',(0.0,0.0,1.0));
#675=DIRECTION('',(1.0,0.0,0.0));
#676=AXIS2_PLACEMENT_3D('PCS',#673,#674,#675);
#677=CARTESIAN_POINT('',(0.0,0.0,0.0));
#678=DIRECTION('',(0.0,0.0,1.0));
#679=DIRECTION('',(1.0,0.0,0.0));
#680=AXIS2_PLACEMENT_3D('MCS',#677,#678,#679);
#681=CARTESIAN_POINT('',(0.0,0.0,-45.0));
#682=DIRECTION('',(0.0,0.0,1.0));
#683=DIRECTION('',(1.0,0.0,0.0));
#684=AXIS2_PLACEMENT_3D('CSW',#681,#682,#683);
#685=CONSTRUCTIVE_GEOMETRY_REPRESENTATION('supplemental geometry',(#676,#680,#684),
     #665);
#686=CONSTRUCTIVE_GEOMETRY_REPRESENTATION_RELATIONSHIP('supplemental geometry',$,
     #22,#685);
ENDSEC;
END-ISO-10303-21;
