ISO-10303-21;
HEADER;
FILE_DESCRIPTION(
/* description */ ('3-D model version:1'),
/* implementation_level */ '2;1');
FILE_NAME(
/* name */ '392.410EH-4010040',
/* time_stamp */ '2016-12-02T14:00:24',
/* author */ ('InteractiveCad'),
/* organization */ ('AB Sandvik Coromant'),
/* preprocessor_version */ 'ST-DEVELOPER v11',
/* originating_system */ 'SIEMENS UGS NX 6.0',
/* authorization */ '');
FILE_SCHEMA(('AUTOMOTIVE_DESIGN'));
ENDSEC;
DATA;
#10=SHAPE_REPRESENTATION_RELATIONSHIP('None','relationship between ds680C826cp8-None and ds680C826cp8-None',
     #22,#11);
#11=ADVANCED_BREP_SHAPE_REPRESENTATION('ds680C826cp8-None',(#32),#325);
#12=SHAPE_DEFINITION_REPRESENTATION(#13,#22);
#13=PRODUCT_DEFINITION_SHAPE('','',#14);
#14=PRODUCT_DEFINITION(' ','',#16,#15);
#15=PRODUCT_DEFINITION_CONTEXT('part definition',#21,'design');
#16=PRODUCT_DEFINITION_FORMATION_WITH_SPECIFIED_SOURCE(' ',' ',#18,.NOT_KNOWN.);
#17=PRODUCT_RELATED_PRODUCT_CATEGORY('part','',(#18));
#18=PRODUCT('ds680C826cp8','ds680C826cp8',' ',(#19));
#19=PRODUCT_CONTEXT(' ',#21,'mechanical');
#20=APPLICATION_PROTOCOL_DEFINITION('international standard','automotive_design',
     2001,#21);
#21=APPLICATION_CONTEXT('core data for automotive mechanical design processes');
#22=SHAPE_REPRESENTATION('ds680C826cp8-None',(#190),#325);
#23=PRESENTATION_LAYER_ASSIGNMENT('1','Layer 1',(#32));
#24=STYLED_ITEM('',(#25),#32);
#25=PRESENTATION_STYLE_ASSIGNMENT((#26));
#26=SURFACE_STYLE_USAGE(.BOTH.,#27);
#27=SURFACE_SIDE_STYLE('',(#28));
#28=SURFACE_STYLE_FILL_AREA(#29);
#29=FILL_AREA_STYLE('',(#30));
#30=FILL_AREA_STYLE_COLOUR('',#31);
#31=COLOUR_RGB('Medium Gray',0.490196078431373,0.490196078431373,0.490196078431373);
#32=MANIFOLD_SOLID_BREP('NOCUT',#33);
#33=CLOSED_SHELL('',(#69,#70,#71,#72,#73,#74,#75,#76,#77,#78,#79,#80,#81,#82,#83));
#34=TOROIDAL_SURFACE('',#216,9.8,5.0);
#35=CYLINDRICAL_SURFACE('',#198,19.975);
#36=CYLINDRICAL_SURFACE('',#204,17.375);
#37=CYLINDRICAL_SURFACE('',#210,19.975);
#38=CYLINDRICAL_SURFACE('',#218,4.8);
#39=CONICAL_SURFACE('',#194,14.2069068136273,2.86813194068654);
#40=CONICAL_SURFACE('',#200,19.975,60.0);
#41=CONICAL_SURFACE('',#208,18.2720027128527,59.9999999999999);
#42=CONICAL_SURFACE('',#214,16.4999999999999,75.0);
#43=FACE_BOUND('',#93,.T.);
#44=FACE_BOUND('',#94,.T.);
#45=FACE_BOUND('',#95,.T.);
#46=FACE_BOUND('',#96,.T.);
#47=FACE_BOUND('',#97,.T.);
#48=FACE_BOUND('',#98,.T.);
#49=FACE_BOUND('',#99,.T.);
#50=FACE_BOUND('',#100,.T.);
#51=FACE_BOUND('',#101,.T.);
#52=FACE_BOUND('',#102,.T.);
#53=FACE_BOUND('',#103,.T.);
#54=FACE_BOUND('',#104,.T.);
#55=FACE_BOUND('',#105,.T.);
#56=FACE_BOUND('',#106,.T.);
#57=FACE_BOUND('',#107,.T.);
#58=FACE_BOUND('',#108,.T.);
#59=FACE_BOUND('',#109,.T.);
#60=FACE_BOUND('',#110,.T.);
#61=FACE_BOUND('',#111,.T.);
#62=FACE_BOUND('',#112,.T.);
#63=FACE_BOUND('',#113,.T.);
#64=FACE_BOUND('',#114,.T.);
#65=FACE_BOUND('',#115,.T.);
#66=FACE_BOUND('',#116,.T.);
#67=FACE_BOUND('',#117,.T.);
#68=FACE_BOUND('',#118,.T.);
#69=ADVANCED_FACE('',(#90),#84,.F.);
#70=ADVANCED_FACE('',(#43,#44),#39,.T.);
#71=ADVANCED_FACE('',(#45,#46),#85,.F.);
#72=ADVANCED_FACE('',(#47,#48),#35,.T.);
#73=ADVANCED_FACE('',(#49,#50),#40,.T.);
#74=ADVANCED_FACE('',(#51,#52),#86,.F.);
#75=ADVANCED_FACE('',(#53,#54),#36,.T.);
#76=ADVANCED_FACE('',(#55,#56),#87,.F.);
#77=ADVANCED_FACE('',(#57,#58),#41,.T.);
#78=ADVANCED_FACE('',(#59,#60),#37,.T.);
#79=ADVANCED_FACE('',(#61,#62),#88,.F.);
#80=ADVANCED_FACE('',(#63,#64),#42,.T.);
#81=ADVANCED_FACE('',(#65,#66),#34,.F.);
#82=ADVANCED_FACE('',(#67,#68),#38,.T.);
#83=ADVANCED_FACE('',(#91),#89,.F.);
#84=PLANE('',#192);
#85=PLANE('',#196);
#86=PLANE('',#202);
#87=PLANE('',#206);
#88=PLANE('',#212);
#89=PLANE('',#219);
#90=FACE_OUTER_BOUND('',#92,.T.);
#91=FACE_OUTER_BOUND('',#119,.T.);
#92=EDGE_LOOP('',(#120));
#93=EDGE_LOOP('',(#121));
#94=EDGE_LOOP('',(#122));
#95=EDGE_LOOP('',(#123));
#96=EDGE_LOOP('',(#124));
#97=EDGE_LOOP('',(#125));
#98=EDGE_LOOP('',(#126));
#99=EDGE_LOOP('',(#127));
#100=EDGE_LOOP('',(#128));
#101=EDGE_LOOP('',(#129));
#102=EDGE_LOOP('',(#130));
#103=EDGE_LOOP('',(#131));
#104=EDGE_LOOP('',(#132));
#105=EDGE_LOOP('',(#133));
#106=EDGE_LOOP('',(#134));
#107=EDGE_LOOP('',(#135));
#108=EDGE_LOOP('',(#136));
#109=EDGE_LOOP('',(#137));
#110=EDGE_LOOP('',(#138));
#111=EDGE_LOOP('',(#139));
#112=EDGE_LOOP('',(#140));
#113=EDGE_LOOP('',(#141));
#114=EDGE_LOOP('',(#142));
#115=EDGE_LOOP('',(#143));
#116=EDGE_LOOP('',(#144));
#117=EDGE_LOOP('',(#145));
#118=EDGE_LOOP('',(#146));
#119=EDGE_LOOP('',(#147));
#120=ORIENTED_EDGE('',*,*,#162,.F.);
#121=ORIENTED_EDGE('',*,*,#163,.F.);
#122=ORIENTED_EDGE('',*,*,#162,.T.);
#123=ORIENTED_EDGE('',*,*,#164,.F.);
#124=ORIENTED_EDGE('',*,*,#163,.T.);
#125=ORIENTED_EDGE('',*,*,#165,.F.);
#126=ORIENTED_EDGE('',*,*,#164,.T.);
#127=ORIENTED_EDGE('',*,*,#166,.F.);
#128=ORIENTED_EDGE('',*,*,#165,.T.);
#129=ORIENTED_EDGE('',*,*,#167,.F.);
#130=ORIENTED_EDGE('',*,*,#166,.T.);
#131=ORIENTED_EDGE('',*,*,#168,.F.);
#132=ORIENTED_EDGE('',*,*,#167,.T.);
#133=ORIENTED_EDGE('',*,*,#169,.F.);
#134=ORIENTED_EDGE('',*,*,#168,.T.);
#135=ORIENTED_EDGE('',*,*,#170,.F.);
#136=ORIENTED_EDGE('',*,*,#169,.T.);
#137=ORIENTED_EDGE('',*,*,#171,.F.);
#138=ORIENTED_EDGE('',*,*,#170,.T.);
#139=ORIENTED_EDGE('',*,*,#172,.F.);
#140=ORIENTED_EDGE('',*,*,#171,.T.);
#141=ORIENTED_EDGE('',*,*,#173,.F.);
#142=ORIENTED_EDGE('',*,*,#172,.T.);
#143=ORIENTED_EDGE('',*,*,#174,.F.);
#144=ORIENTED_EDGE('',*,*,#173,.T.);
#145=ORIENTED_EDGE('',*,*,#175,.F.);
#146=ORIENTED_EDGE('',*,*,#174,.T.);
#147=ORIENTED_EDGE('',*,*,#175,.T.);
#148=VERTEX_POINT('',#282);
#149=VERTEX_POINT('',#285);
#150=VERTEX_POINT('',#288);
#151=VERTEX_POINT('',#291);
#152=VERTEX_POINT('',#294);
#153=VERTEX_POINT('',#297);
#154=VERTEX_POINT('',#300);
#155=VERTEX_POINT('',#303);
#156=VERTEX_POINT('',#306);
#157=VERTEX_POINT('',#309);
#158=VERTEX_POINT('',#312);
#159=VERTEX_POINT('',#315);
#160=VERTEX_POINT('',#318);
#161=VERTEX_POINT('',#321);
#162=EDGE_CURVE('',#148,#148,#176,.T.);
#163=EDGE_CURVE('',#149,#149,#177,.T.);
#164=EDGE_CURVE('',#150,#150,#178,.T.);
#165=EDGE_CURVE('',#151,#151,#179,.T.);
#166=EDGE_CURVE('',#152,#152,#180,.T.);
#167=EDGE_CURVE('',#153,#153,#181,.T.);
#168=EDGE_CURVE('',#154,#154,#182,.T.);
#169=EDGE_CURVE('',#155,#155,#183,.T.);
#170=EDGE_CURVE('',#156,#156,#184,.T.);
#171=EDGE_CURVE('',#157,#157,#185,.T.);
#172=EDGE_CURVE('',#158,#158,#186,.T.);
#173=EDGE_CURVE('',#159,#159,#187,.T.);
#174=EDGE_CURVE('',#160,#160,#188,.T.);
#175=EDGE_CURVE('',#161,#161,#189,.T.);
#176=CIRCLE('',#191,14.2069068136273);
#177=CIRCLE('',#193,15.2039008016032);
#178=CIRCLE('',#195,19.975);
#179=CIRCLE('',#197,19.975);
#180=CIRCLE('',#199,18.2720027128527);
#181=CIRCLE('',#201,17.375);
#182=CIRCLE('',#203,17.375);
#183=CIRCLE('',#205,18.2720027128527);
#184=CIRCLE('',#207,19.975);
#185=CIRCLE('',#209,19.975);
#186=CIRCLE('',#211,16.4999999999999);
#187=CIRCLE('',#213,8.50590477448731);
#188=CIRCLE('',#215,4.8);
#189=CIRCLE('',#217,4.8);
#190=AXIS2_PLACEMENT_3D('',#280,#220,#221);
#191=AXIS2_PLACEMENT_3D('',#281,#222,#223);
#192=AXIS2_PLACEMENT_3D('',#283,#224,#225);
#193=AXIS2_PLACEMENT_3D('',#284,#226,#227);
#194=AXIS2_PLACEMENT_3D('',#286,#228,#229);
#195=AXIS2_PLACEMENT_3D('',#287,#230,#231);
#196=AXIS2_PLACEMENT_3D('',#289,#232,#233);
#197=AXIS2_PLACEMENT_3D('',#290,#234,#235);
#198=AXIS2_PLACEMENT_3D('',#292,#236,#237);
#199=AXIS2_PLACEMENT_3D('',#293,#238,#239);
#200=AXIS2_PLACEMENT_3D('',#295,#240,#241);
#201=AXIS2_PLACEMENT_3D('',#296,#242,#243);
#202=AXIS2_PLACEMENT_3D('',#298,#244,#245);
#203=AXIS2_PLACEMENT_3D('',#299,#246,#247);
#204=AXIS2_PLACEMENT_3D('',#301,#248,#249);
#205=AXIS2_PLACEMENT_3D('',#302,#250,#251);
#206=AXIS2_PLACEMENT_3D('',#304,#252,#253);
#207=AXIS2_PLACEMENT_3D('',#305,#254,#255);
#208=AXIS2_PLACEMENT_3D('',#307,#256,#257);
#209=AXIS2_PLACEMENT_3D('',#308,#258,#259);
#210=AXIS2_PLACEMENT_3D('',#310,#260,#261);
#211=AXIS2_PLACEMENT_3D('',#311,#262,#263);
#212=AXIS2_PLACEMENT_3D('',#313,#264,#265);
#213=AXIS2_PLACEMENT_3D('',#314,#266,#267);
#214=AXIS2_PLACEMENT_3D('',#316,#268,#269);
#215=AXIS2_PLACEMENT_3D('',#317,#270,#271);
#216=AXIS2_PLACEMENT_3D('',#319,#272,#273);
#217=AXIS2_PLACEMENT_3D('',#320,#274,#275);
#218=AXIS2_PLACEMENT_3D('',#322,#276,#277);
#219=AXIS2_PLACEMENT_3D('',#323,#278,#279);
#220=DIRECTION('',(0.0,0.0,1.0));
#221=DIRECTION('',(1.0,0.0,0.0));
#222=DIRECTION('',(0.0,0.0,-1.0));
#223=DIRECTION('',(-1.0,0.0,0.0));
#224=DIRECTION('',(0.0,0.0,-1.0));
#225=DIRECTION('',(-1.0,0.0,0.0));
#226=DIRECTION('',(0.0,0.0,-1.0));
#227=DIRECTION('',(-1.0,0.0,0.0));
#228=DIRECTION('',(0.0,0.0,-1.0));
#229=DIRECTION('',(-1.0,0.0,4.85560988826095E-16));
#230=DIRECTION('',(0.0,0.0,-1.0));
#231=DIRECTION('',(-1.0,0.0,0.0));
#232=DIRECTION('',(0.0,0.0,-1.0));
#233=DIRECTION('',(-1.0,0.0,0.0));
#234=DIRECTION('',(0.0,0.0,-1.0));
#235=DIRECTION('',(-1.0,0.0,0.0));
#236=DIRECTION('',(0.0,0.0,-1.0));
#237=DIRECTION('',(-1.0,0.0,0.0));
#238=DIRECTION('',(0.0,0.0,-1.0));
#239=DIRECTION('',(-1.0,0.0,0.0));
#240=DIRECTION('',(0.0,0.0,1.0));
#241=DIRECTION('',(1.0,0.0,1.38617413960214E-17));
#242=DIRECTION('',(0.0,0.0,-1.0));
#243=DIRECTION('',(-1.0,0.0,0.0));
#244=DIRECTION('',(0.0,0.0,1.0));
#245=DIRECTION('',(1.0,0.0,0.0));
#246=DIRECTION('',(0.0,0.0,-1.0));
#247=DIRECTION('',(-1.0,0.0,0.0));
#248=DIRECTION('',(0.0,0.0,-1.0));
#249=DIRECTION('',(-1.0,0.0,0.0));
#250=DIRECTION('',(0.0,0.0,-1.0));
#251=DIRECTION('',(-1.0,0.0,0.0));
#252=DIRECTION('',(0.0,0.0,-1.0));
#253=DIRECTION('',(-1.0,0.0,0.0));
#254=DIRECTION('',(0.0,0.0,-1.0));
#255=DIRECTION('',(-1.0,0.0,0.0));
#256=DIRECTION('',(0.0,0.0,-1.0));
#257=DIRECTION('',(-1.0,0.0,-2.18039302506417E-17));
#258=DIRECTION('',(0.0,0.0,-1.0));
#259=DIRECTION('',(-1.0,0.0,0.0));
#260=DIRECTION('',(0.0,0.0,-1.0));
#261=DIRECTION('',(-1.0,0.0,0.0));
#262=DIRECTION('',(0.0,0.0,-1.0));
#263=DIRECTION('',(-1.0,0.0,0.0));
#264=DIRECTION('',(0.0,0.0,1.0));
#265=DIRECTION('',(1.0,0.0,0.0));
#266=DIRECTION('',(0.0,0.0,-1.0));
#267=DIRECTION('',(-1.0,0.0,0.0));
#268=DIRECTION('',(0.0,0.0,1.0));
#269=DIRECTION('',(1.0,0.0,-6.47880471958338E-18));
#270=DIRECTION('',(0.0,0.0,-1.0));
#271=DIRECTION('',(-1.0,0.0,0.0));
#272=DIRECTION('',(0.0,0.0,-1.0));
#273=DIRECTION('',(-1.0,0.0,0.0));
#274=DIRECTION('',(0.0,0.0,-1.0));
#275=DIRECTION('',(-1.0,0.0,0.0));
#276=DIRECTION('',(0.0,0.0,-1.0));
#277=DIRECTION('',(-1.0,0.0,0.0));
#278=DIRECTION('',(0.0,0.0,1.0));
#279=DIRECTION('',(1.0,0.0,0.0));
#280=CARTESIAN_POINT('',(0.0,0.0,0.0));
#281=CARTESIAN_POINT('',(0.0,1.77635683940025E-15,19.9));
#282=CARTESIAN_POINT('',(-14.2069068136273,1.77635683940025E-15,19.9));
#283=CARTESIAN_POINT('',(0.0,10.521,19.9));
#284=CARTESIAN_POINT('',(0.0,1.77635683940025E-15,0.0));
#285=CARTESIAN_POINT('',(-15.2039008016032,1.77635683940025E-15,0.0));
#286=CARTESIAN_POINT('',(0.0,1.77635683940025E-15,19.9));
#287=CARTESIAN_POINT('',(0.0,1.77635683940025E-15,0.0));
#288=CARTESIAN_POINT('',(-19.975,1.77635683940025E-15,0.0));
#289=CARTESIAN_POINT('',(0.0,15.2039008016032,4.44089209850063E-16));
#290=CARTESIAN_POINT('',(0.0,1.77635683940025E-15,-13.9792740578363));
#291=CARTESIAN_POINT('',(-19.975,1.77635683940025E-15,-13.9792740578363));
#292=CARTESIAN_POINT('',(0.0,1.77635683940025E-15,19.9));
#293=CARTESIAN_POINT('',(0.0,1.77635683940025E-15,-14.9625));
#294=CARTESIAN_POINT('',(-18.2720027128527,1.77635683940025E-15,-14.9625));
#295=CARTESIAN_POINT('',(0.0,1.77635683940025E-15,-13.9792740578363));
#296=CARTESIAN_POINT('',(0.0,1.77635683940025E-15,-14.9625));
#297=CARTESIAN_POINT('',(-17.375,1.77635683940025E-15,-14.9625));
#298=CARTESIAN_POINT('',(0.0,18.2720027128527,-14.9625));
#299=CARTESIAN_POINT('',(0.0,1.77635683940025E-15,-17.0375));
#300=CARTESIAN_POINT('',(-17.375,1.77635683940025E-15,-17.0375));
#301=CARTESIAN_POINT('',(0.0,1.77635683940025E-15,19.9));
#302=CARTESIAN_POINT('',(0.0,1.77635683940025E-15,-17.0375));
#303=CARTESIAN_POINT('',(-18.2720027128527,1.77635683940025E-15,-17.0375));
#304=CARTESIAN_POINT('',(0.0,17.375,-17.0375));
#305=CARTESIAN_POINT('',(0.0,1.77635683940025E-15,-18.0207259421637));
#306=CARTESIAN_POINT('',(-19.975,1.77635683940025E-15,-18.0207259421637));
#307=CARTESIAN_POINT('',(0.0,1.77635683940025E-15,-17.0375));
#308=CARTESIAN_POINT('',(0.0,1.77635683940025E-15,-19.95));
#309=CARTESIAN_POINT('',(-19.975,1.77635683940025E-15,-19.95));
#310=CARTESIAN_POINT('',(0.0,1.77635683940025E-15,19.9));
#311=CARTESIAN_POINT('',(0.0,1.77635683940025E-15,-19.95));
#312=CARTESIAN_POINT('',(-16.4999999999999,1.77635683940025E-15,-19.95));
#313=CARTESIAN_POINT('',(0.0,19.975,-19.95));
#314=CARTESIAN_POINT('',(0.0,1.77635683940025E-15,-22.0920113598936));
#315=CARTESIAN_POINT('',(-8.50590477448731,1.77635683940025E-15,-22.0920113598936));
#316=CARTESIAN_POINT('',(0.0,1.77635683940025E-15,-19.95));
#317=CARTESIAN_POINT('',(0.0,1.77635683940025E-15,-26.9216404913389));
#318=CARTESIAN_POINT('',(-4.8,1.77635683940025E-15,-26.9216404913389));
#319=CARTESIAN_POINT('',(0.0,1.73472347597681E-15,-26.9216404913389));
#320=CARTESIAN_POINT('',(0.0,1.77635683940025E-15,-39.9850055514441));
#321=CARTESIAN_POINT('',(-4.8,1.77635683940025E-15,-39.9850055514441));
#322=CARTESIAN_POINT('',(0.0,1.77635683940025E-15,19.9));
#323=CARTESIAN_POINT('',(0.0,4.8,-39.9850055514441));
#324=MECHANICAL_DESIGN_GEOMETRIC_PRESENTATION_REPRESENTATION('',(#24),#325);
#325=(GEOMETRIC_REPRESENTATION_CONTEXT(3)GLOBAL_UNCERTAINTY_ASSIGNED_CONTEXT((#326))
     GLOBAL_UNIT_ASSIGNED_CONTEXT((#332,#328,#327))REPRESENTATION_CONTEXT('392','TOP_LEVEL_ASSEMBLY_PART'));
#326=UNCERTAINTY_MEASURE_WITH_UNIT(LENGTH_MEASURE(2.0E-5),#332,'DISTANCE_ACCURACY_VALUE',
     'Maximum Tolerance applied to model');
#327=(NAMED_UNIT(*)SI_UNIT($,.STERADIAN.)SOLID_ANGLE_UNIT());
#328=(CONVERSION_BASED_UNIT('DEGREE',#330)NAMED_UNIT(*)PLANE_ANGLE_UNIT());
#329=DIMENSIONAL_EXPONENTS(0.0,0.0,0.0,0.0,0.0,0.0,0.0);
#330=PLANE_ANGLE_MEASURE_WITH_UNIT(PLANE_ANGLE_MEASURE(0.0174532925),#331);
#331=(NAMED_UNIT(*)PLANE_ANGLE_UNIT()SI_UNIT($,.RADIAN.));
#332=(LENGTH_UNIT()NAMED_UNIT(*)SI_UNIT(.MILLI.,.METRE.));
#333=CARTESIAN_POINT('',(0.0,0.0,0.0));
#334=DIRECTION('',(0.0,0.0,1.0));
#335=DIRECTION('',(1.0,0.0,0.0));
#336=AXIS2_PLACEMENT_3D('PCS',#333,#334,#335);
#337=CARTESIAN_POINT('',(0.0,0.0,0.0));
#338=DIRECTION('',(0.0,0.0,1.0));
#339=DIRECTION('',(1.0,0.0,0.0));
#340=AXIS2_PLACEMENT_3D('MCS',#337,#338,#339);
#341=CARTESIAN_POINT('',(0.0,0.0,-40.0));
#342=DIRECTION('',(0.0,0.0,1.0));
#343=DIRECTION('',(1.0,0.0,0.0));
#344=AXIS2_PLACEMENT_3D('CSW',#341,#342,#343);
#345=CONSTRUCTIVE_GEOMETRY_REPRESENTATION('supplemental geometry',(#336,#340,#344),
     #325);
#346=CONSTRUCTIVE_GEOMETRY_REPRESENTATION_RELATIONSHIP('supplemental geometry',$,
     #22,#345);
ENDSEC;
END-ISO-10303-21;
