ISO-10303-21;
HEADER;
FILE_DESCRIPTION(
/* description */ ('3-D model version:1'),
/* implementation_level */ '2;1');
FILE_NAME(
/* name */ '392.410EH-10025115',
/* time_stamp */ '2016-12-02T13:57:19',
/* author */ ('InteractiveCad'),
/* organization */ ('AB Sandvik Coromant'),
/* preprocessor_version */ 'ST-DEVELOPER v11',
/* originating_system */ 'SIEMENS UGS NX 6.0',
/* authorization */ '');
FILE_SCHEMA(('AUTOMOTIVE_DESIGN'));
ENDSEC;
DATA;
#10=SHAPE_REPRESENTATION_RELATIONSHIP('None','relationship between ds680C826coz-None and ds680C826coz-None',
     #22,#11);
#11=ADVANCED_BREP_SHAPE_REPRESENTATION('ds680C826coz-None',(#32),#345);
#12=SHAPE_DEFINITION_REPRESENTATION(#13,#22);
#13=PRODUCT_DEFINITION_SHAPE('','',#14);
#14=PRODUCT_DEFINITION(' ','',#16,#15);
#15=PRODUCT_DEFINITION_CONTEXT('part definition',#21,'design');
#16=PRODUCT_DEFINITION_FORMATION_WITH_SPECIFIED_SOURCE(' ',' ',#18,.NOT_KNOWN.);
#17=PRODUCT_RELATED_PRODUCT_CATEGORY('part','',(#18));
#18=PRODUCT('ds680C826coz','ds680C826coz',' ',(#19));
#19=PRODUCT_CONTEXT(' ',#21,'mechanical');
#20=APPLICATION_PROTOCOL_DEFINITION('international standard','automotive_design',
     2001,#21);
#21=APPLICATION_CONTEXT('core data for automotive mechanical design processes');
#22=SHAPE_REPRESENTATION('ds680C826coz-None',(#201),#345);
#23=PRESENTATION_LAYER_ASSIGNMENT('1','Layer 1',(#32));
#24=STYLED_ITEM('',(#25),#32);
#25=PRESENTATION_STYLE_ASSIGNMENT((#26));
#26=SURFACE_STYLE_USAGE(.BOTH.,#27);
#27=SURFACE_SIDE_STYLE('',(#28));
#28=SURFACE_STYLE_FILL_AREA(#29);
#29=FILL_AREA_STYLE('',(#30));
#30=FILL_AREA_STYLE_COLOUR('',#31);
#31=COLOUR_RGB('Medium Gray',0.490196078431373,0.490196078431373,0.490196078431373);
#32=MANIFOLD_SOLID_BREP('NOCUT',#33);
#33=CLOSED_SHELL('',(#72,#73,#74,#75,#76,#77,#78,#79,#80,#81,#82,#83,#84,#85,#86,
     #87));
#34=TOROIDAL_SURFACE('',#209,24.2338377650126,5.0);
#35=CONICAL_SURFACE('',#207,12.05,8.00834020389795);
#36=CONICAL_SURFACE('',#211,22.9398440166368,75.0012038595783);
#37=CONICAL_SURFACE('',#217,49.965,59.9999999999988);
#38=CONICAL_SURFACE('',#225,47.6625471694755,59.9999999999983);
#39=CONICAL_SURFACE('',#231,38.007502004008,2.86813194068658);
#40=CYLINDRICAL_SURFACE('',#205,12.05);
#41=CYLINDRICAL_SURFACE('',#215,49.965);
#42=CYLINDRICAL_SURFACE('',#221,45.975);
#43=CYLINDRICAL_SURFACE('',#227,49.9649999999999);
#44=FACE_BOUND('',#97,.T.);
#45=FACE_BOUND('',#98,.T.);
#46=FACE_BOUND('',#99,.T.);
#47=FACE_BOUND('',#100,.T.);
#48=FACE_BOUND('',#101,.T.);
#49=FACE_BOUND('',#102,.T.);
#50=FACE_BOUND('',#103,.T.);
#51=FACE_BOUND('',#104,.T.);
#52=FACE_BOUND('',#105,.T.);
#53=FACE_BOUND('',#106,.T.);
#54=FACE_BOUND('',#107,.T.);
#55=FACE_BOUND('',#108,.T.);
#56=FACE_BOUND('',#109,.T.);
#57=FACE_BOUND('',#110,.T.);
#58=FACE_BOUND('',#111,.T.);
#59=FACE_BOUND('',#112,.T.);
#60=FACE_BOUND('',#113,.T.);
#61=FACE_BOUND('',#114,.T.);
#62=FACE_BOUND('',#115,.T.);
#63=FACE_BOUND('',#116,.T.);
#64=FACE_BOUND('',#117,.T.);
#65=FACE_BOUND('',#118,.T.);
#66=FACE_BOUND('',#119,.T.);
#67=FACE_BOUND('',#120,.T.);
#68=FACE_BOUND('',#121,.T.);
#69=FACE_BOUND('',#122,.T.);
#70=FACE_BOUND('',#123,.T.);
#71=FACE_BOUND('',#124,.T.);
#72=ADVANCED_FACE('',(#94),#88,.T.);
#73=ADVANCED_FACE('',(#44,#45),#40,.T.);
#74=ADVANCED_FACE('',(#46,#47),#35,.T.);
#75=ADVANCED_FACE('',(#48,#49),#34,.F.);
#76=ADVANCED_FACE('',(#50,#51),#36,.T.);
#77=ADVANCED_FACE('',(#52,#53),#89,.T.);
#78=ADVANCED_FACE('',(#54,#55),#41,.T.);
#79=ADVANCED_FACE('',(#56,#57),#37,.T.);
#80=ADVANCED_FACE('',(#58,#59),#90,.T.);
#81=ADVANCED_FACE('',(#60,#61),#42,.T.);
#82=ADVANCED_FACE('',(#62,#63),#91,.T.);
#83=ADVANCED_FACE('',(#64,#65),#38,.T.);
#84=ADVANCED_FACE('',(#66,#67),#43,.T.);
#85=ADVANCED_FACE('',(#68,#69),#92,.T.);
#86=ADVANCED_FACE('',(#70,#71),#39,.T.);
#87=ADVANCED_FACE('',(#95),#93,.T.);
#88=PLANE('',#203);
#89=PLANE('',#213);
#90=PLANE('',#219);
#91=PLANE('',#223);
#92=PLANE('',#229);
#93=PLANE('',#232);
#94=FACE_OUTER_BOUND('',#96,.T.);
#95=FACE_OUTER_BOUND('',#125,.T.);
#96=EDGE_LOOP('',(#126));
#97=EDGE_LOOP('',(#127));
#98=EDGE_LOOP('',(#128));
#99=EDGE_LOOP('',(#129));
#100=EDGE_LOOP('',(#130));
#101=EDGE_LOOP('',(#131));
#102=EDGE_LOOP('',(#132));
#103=EDGE_LOOP('',(#133));
#104=EDGE_LOOP('',(#134));
#105=EDGE_LOOP('',(#135));
#106=EDGE_LOOP('',(#136));
#107=EDGE_LOOP('',(#137));
#108=EDGE_LOOP('',(#138));
#109=EDGE_LOOP('',(#139));
#110=EDGE_LOOP('',(#140));
#111=EDGE_LOOP('',(#141));
#112=EDGE_LOOP('',(#142));
#113=EDGE_LOOP('',(#143));
#114=EDGE_LOOP('',(#144));
#115=EDGE_LOOP('',(#145));
#116=EDGE_LOOP('',(#146));
#117=EDGE_LOOP('',(#147));
#118=EDGE_LOOP('',(#148));
#119=EDGE_LOOP('',(#149));
#120=EDGE_LOOP('',(#150));
#121=EDGE_LOOP('',(#151));
#122=EDGE_LOOP('',(#152));
#123=EDGE_LOOP('',(#153));
#124=EDGE_LOOP('',(#154));
#125=EDGE_LOOP('',(#155));
#126=ORIENTED_EDGE('',*,*,#171,.T.);
#127=ORIENTED_EDGE('',*,*,#172,.T.);
#128=ORIENTED_EDGE('',*,*,#171,.F.);
#129=ORIENTED_EDGE('',*,*,#173,.T.);
#130=ORIENTED_EDGE('',*,*,#172,.F.);
#131=ORIENTED_EDGE('',*,*,#174,.T.);
#132=ORIENTED_EDGE('',*,*,#173,.F.);
#133=ORIENTED_EDGE('',*,*,#175,.T.);
#134=ORIENTED_EDGE('',*,*,#174,.F.);
#135=ORIENTED_EDGE('',*,*,#176,.T.);
#136=ORIENTED_EDGE('',*,*,#175,.F.);
#137=ORIENTED_EDGE('',*,*,#177,.T.);
#138=ORIENTED_EDGE('',*,*,#176,.F.);
#139=ORIENTED_EDGE('',*,*,#178,.T.);
#140=ORIENTED_EDGE('',*,*,#177,.F.);
#141=ORIENTED_EDGE('',*,*,#179,.T.);
#142=ORIENTED_EDGE('',*,*,#178,.F.);
#143=ORIENTED_EDGE('',*,*,#180,.T.);
#144=ORIENTED_EDGE('',*,*,#179,.F.);
#145=ORIENTED_EDGE('',*,*,#181,.T.);
#146=ORIENTED_EDGE('',*,*,#180,.F.);
#147=ORIENTED_EDGE('',*,*,#182,.T.);
#148=ORIENTED_EDGE('',*,*,#181,.F.);
#149=ORIENTED_EDGE('',*,*,#183,.T.);
#150=ORIENTED_EDGE('',*,*,#182,.F.);
#151=ORIENTED_EDGE('',*,*,#184,.T.);
#152=ORIENTED_EDGE('',*,*,#183,.F.);
#153=ORIENTED_EDGE('',*,*,#185,.T.);
#154=ORIENTED_EDGE('',*,*,#184,.F.);
#155=ORIENTED_EDGE('',*,*,#185,.F.);
#156=VERTEX_POINT('',#299);
#157=VERTEX_POINT('',#302);
#158=VERTEX_POINT('',#305);
#159=VERTEX_POINT('',#308);
#160=VERTEX_POINT('',#311);
#161=VERTEX_POINT('',#314);
#162=VERTEX_POINT('',#317);
#163=VERTEX_POINT('',#320);
#164=VERTEX_POINT('',#323);
#165=VERTEX_POINT('',#326);
#166=VERTEX_POINT('',#329);
#167=VERTEX_POINT('',#332);
#168=VERTEX_POINT('',#335);
#169=VERTEX_POINT('',#338);
#170=VERTEX_POINT('',#341);
#171=EDGE_CURVE('',#156,#156,#186,.T.);
#172=EDGE_CURVE('',#157,#157,#187,.T.);
#173=EDGE_CURVE('',#158,#158,#188,.T.);
#174=EDGE_CURVE('',#159,#159,#189,.T.);
#175=EDGE_CURVE('',#160,#160,#190,.T.);
#176=EDGE_CURVE('',#161,#161,#191,.T.);
#177=EDGE_CURVE('',#162,#162,#192,.T.);
#178=EDGE_CURVE('',#163,#163,#193,.T.);
#179=EDGE_CURVE('',#164,#164,#194,.T.);
#180=EDGE_CURVE('',#165,#165,#195,.T.);
#181=EDGE_CURVE('',#166,#166,#196,.T.);
#182=EDGE_CURVE('',#167,#167,#197,.T.);
#183=EDGE_CURVE('',#168,#168,#198,.T.);
#184=EDGE_CURVE('',#169,#169,#199,.T.);
#185=EDGE_CURVE('',#170,#170,#200,.T.);
#186=CIRCLE('',#202,12.05);
#187=CIRCLE('',#204,12.05);
#188=CIRCLE('',#206,19.2825987667401);
#189=CIRCLE('',#208,22.9398440166368);
#190=CIRCLE('',#210,43.4999999999999);
#191=CIRCLE('',#212,49.965);
#192=CIRCLE('',#214,49.965);
#193=CIRCLE('',#216,47.6625471694755);
#194=CIRCLE('',#218,45.975);
#195=CIRCLE('',#220,45.975);
#196=CIRCLE('',#222,47.6625471694755);
#197=CIRCLE('',#224,49.9649999999998);
#198=CIRCLE('',#226,49.965);
#199=CIRCLE('',#228,38.007502004008);
#200=CIRCLE('',#230,35.5075020040081);
#201=AXIS2_PLACEMENT_3D('',#297,#233,#234);
#202=AXIS2_PLACEMENT_3D('',#298,#235,#236);
#203=AXIS2_PLACEMENT_3D('',#300,#237,#238);
#204=AXIS2_PLACEMENT_3D('',#301,#239,#240);
#205=AXIS2_PLACEMENT_3D('',#303,#241,#242);
#206=AXIS2_PLACEMENT_3D('',#304,#243,#244);
#207=AXIS2_PLACEMENT_3D('',#306,#245,#246);
#208=AXIS2_PLACEMENT_3D('',#307,#247,#248);
#209=AXIS2_PLACEMENT_3D('',#309,#249,#250);
#210=AXIS2_PLACEMENT_3D('',#310,#251,#252);
#211=AXIS2_PLACEMENT_3D('',#312,#253,#254);
#212=AXIS2_PLACEMENT_3D('',#313,#255,#256);
#213=AXIS2_PLACEMENT_3D('',#315,#257,#258);
#214=AXIS2_PLACEMENT_3D('',#316,#259,#260);
#215=AXIS2_PLACEMENT_3D('',#318,#261,#262);
#216=AXIS2_PLACEMENT_3D('',#319,#263,#264);
#217=AXIS2_PLACEMENT_3D('',#321,#265,#266);
#218=AXIS2_PLACEMENT_3D('',#322,#267,#268);
#219=AXIS2_PLACEMENT_3D('',#324,#269,#270);
#220=AXIS2_PLACEMENT_3D('',#325,#271,#272);
#221=AXIS2_PLACEMENT_3D('',#327,#273,#274);
#222=AXIS2_PLACEMENT_3D('',#328,#275,#276);
#223=AXIS2_PLACEMENT_3D('',#330,#277,#278);
#224=AXIS2_PLACEMENT_3D('',#331,#279,#280);
#225=AXIS2_PLACEMENT_3D('',#333,#281,#282);
#226=AXIS2_PLACEMENT_3D('',#334,#283,#284);
#227=AXIS2_PLACEMENT_3D('',#336,#285,#286);
#228=AXIS2_PLACEMENT_3D('',#337,#287,#288);
#229=AXIS2_PLACEMENT_3D('',#339,#289,#290);
#230=AXIS2_PLACEMENT_3D('',#340,#291,#292);
#231=AXIS2_PLACEMENT_3D('',#342,#293,#294);
#232=AXIS2_PLACEMENT_3D('',#343,#295,#296);
#233=DIRECTION('',(0.0,0.0,1.0));
#234=DIRECTION('',(1.0,0.0,0.0));
#235=DIRECTION('',(0.0,0.0,-1.0));
#236=DIRECTION('',(-1.0,0.0,0.0));
#237=DIRECTION('',(0.0,0.0,-1.0));
#238=DIRECTION('',(-1.0,0.0,0.0));
#239=DIRECTION('',(0.0,0.0,-1.0));
#240=DIRECTION('',(-1.0,0.0,0.0));
#241=DIRECTION('',(0.0,0.0,-1.0));
#242=DIRECTION('',(-1.0,0.0,0.0));
#243=DIRECTION('',(0.0,0.0,-1.0));
#244=DIRECTION('',(-1.0,0.0,0.0));
#245=DIRECTION('',(0.0,0.0,1.0));
#246=DIRECTION('',(1.0,0.0,1.81718652720557E-16));
#247=DIRECTION('',(0.0,0.0,-1.0));
#248=DIRECTION('',(-1.0,0.0,0.0));
#249=DIRECTION('',(0.0,0.0,-1.0));
#250=DIRECTION('',(-1.0,0.0,0.0));
#251=DIRECTION('',(0.0,0.0,-1.0));
#252=DIRECTION('',(-1.0,0.0,0.0));
#253=DIRECTION('',(0.0,0.0,1.0));
#254=DIRECTION('',(1.0,0.0,7.39103228988702E-18));
#255=DIRECTION('',(0.0,0.0,-1.0));
#256=DIRECTION('',(-1.0,0.0,0.0));
#257=DIRECTION('',(0.0,0.0,-1.0));
#258=DIRECTION('',(-1.0,0.0,0.0));
#259=DIRECTION('',(0.0,0.0,-1.0));
#260=DIRECTION('',(-1.0,0.0,0.0));
#261=DIRECTION('',(0.0,0.0,-1.0));
#262=DIRECTION('',(-1.0,0.0,0.0));
#263=DIRECTION('',(0.0,0.0,-1.0));
#264=DIRECTION('',(-1.0,0.0,0.0));
#265=DIRECTION('',(0.0,0.0,-1.0));
#266=DIRECTION('',(-1.0,0.0,0.0));
#267=DIRECTION('',(0.0,0.0,-1.0));
#268=DIRECTION('',(-1.0,0.0,0.0));
#269=DIRECTION('',(0.0,0.0,1.0));
#270=DIRECTION('',(1.0,0.0,0.0));
#271=DIRECTION('',(0.0,0.0,-1.0));
#272=DIRECTION('',(-1.0,0.0,0.0));
#273=DIRECTION('',(0.0,0.0,-1.0));
#274=DIRECTION('',(-1.0,0.0,0.0));
#275=DIRECTION('',(0.0,0.0,-1.0));
#276=DIRECTION('',(-1.0,0.0,0.0));
#277=DIRECTION('',(0.0,0.0,-1.0));
#278=DIRECTION('',(-1.0,0.0,0.0));
#279=DIRECTION('',(0.0,0.0,-1.0));
#280=DIRECTION('',(-1.0,0.0,0.0));
#281=DIRECTION('',(0.0,0.0,1.0));
#282=DIRECTION('',(1.0,0.0,-1.55955314611388E-17));
#283=DIRECTION('',(0.0,0.0,-1.0));
#284=DIRECTION('',(-1.0,0.0,0.0));
#285=DIRECTION('',(0.0,0.0,-1.0));
#286=DIRECTION('',(-1.0,0.0,0.0));
#287=DIRECTION('',(0.0,0.0,-1.0));
#288=DIRECTION('',(-1.0,0.0,0.0));
#289=DIRECTION('',(0.0,0.0,1.0));
#290=DIRECTION('',(1.0,0.0,0.0));
#291=DIRECTION('',(0.0,0.0,-1.0));
#292=DIRECTION('',(-1.0,0.0,0.0));
#293=DIRECTION('',(0.0,0.0,-1.0));
#294=DIRECTION('',(-1.0,0.0,0.0));
#295=DIRECTION('',(0.0,0.0,1.0));
#296=DIRECTION('',(1.0,0.0,0.0));
#297=CARTESIAN_POINT('',(0.0,0.0,0.0));
#298=CARTESIAN_POINT('',(0.0,3.5527136788005E-15,-115.0));
#299=CARTESIAN_POINT('',(-12.05,3.5527136788005E-15,-115.0));
#300=CARTESIAN_POINT('',(0.0,3.5527136788005E-15,-115.0));
#301=CARTESIAN_POINT('',(0.0,3.5527136788005E-15,-90.0));
#302=CARTESIAN_POINT('',(-12.05,3.5527136788005E-15,-90.0));
#303=CARTESIAN_POINT('',(0.0,3.5527136788005E-15,49.9));
#304=CARTESIAN_POINT('',(0.0,3.5527136788005E-15,-38.5916842694153));
#305=CARTESIAN_POINT('',(-19.2825987667401,3.5527136788005E-15,-38.5916842694153));
#306=CARTESIAN_POINT('',(0.0,3.5527136788005E-15,-90.0));
#307=CARTESIAN_POINT('',(0.0,3.5527136788005E-15,-34.4586141828176));
#308=CARTESIAN_POINT('',(-22.9398440166368,3.5527136788005E-15,-34.4586141828176));
#309=CARTESIAN_POINT('',(0.0,3.46944695195361E-15,-39.2882705038372));
#310=CARTESIAN_POINT('',(0.0,3.5527136788005E-15,-28.95));
#311=CARTESIAN_POINT('',(-43.4999999999999,3.5527136788005E-15,-28.95));
#312=CARTESIAN_POINT('',(0.0,3.5527136788005E-15,-34.4586141828176));
#313=CARTESIAN_POINT('',(0.0,3.5527136788005E-15,-28.95));
#314=CARTESIAN_POINT('',(-49.965,3.5527136788005E-15,-28.95));
#315=CARTESIAN_POINT('',(0.0,43.4999999999999,-28.95));
#316=CARTESIAN_POINT('',(0.0,3.5527136788005E-15,-23.2418217614998));
#317=CARTESIAN_POINT('',(-49.965,3.5527136788005E-15,-23.2418217614998));
#318=CARTESIAN_POINT('',(0.0,3.5527136788005E-15,49.9));
#319=CARTESIAN_POINT('',(0.0,3.5527136788005E-15,-21.9125));
#320=CARTESIAN_POINT('',(-47.6625471694755,3.5527136788005E-15,-21.9125));
#321=CARTESIAN_POINT('',(0.0,3.5527136788005E-15,-23.2418217614998));
#322=CARTESIAN_POINT('',(0.0,3.5527136788005E-15,-21.9125));
#323=CARTESIAN_POINT('',(-45.975,3.5527136788005E-15,-21.9125));
#324=CARTESIAN_POINT('',(0.0,47.6625471694755,-21.9125));
#325=CARTESIAN_POINT('',(0.0,3.5527136788005E-15,-18.0875));
#326=CARTESIAN_POINT('',(-45.975,3.5527136788005E-15,-18.0875));
#327=CARTESIAN_POINT('',(0.0,3.5527136788005E-15,49.9));
#328=CARTESIAN_POINT('',(0.0,3.5527136788005E-15,-18.0875));
#329=CARTESIAN_POINT('',(-47.6625471694755,3.5527136788005E-15,-18.0875));
#330=CARTESIAN_POINT('',(0.0,45.975,-18.0875));
#331=CARTESIAN_POINT('',(0.0,3.5527136788005E-15,-16.7581782385003));
#332=CARTESIAN_POINT('',(-49.9649999999998,3.5527136788005E-15,-16.7581782385003));
#333=CARTESIAN_POINT('',(0.0,3.5527136788005E-15,-18.0875));
#334=CARTESIAN_POINT('',(0.0,3.5527136788005E-15,0.0));
#335=CARTESIAN_POINT('',(-49.965,3.5527136788005E-15,0.0));
#336=CARTESIAN_POINT('',(0.0,3.5527136788005E-15,49.9));
#337=CARTESIAN_POINT('',(0.0,3.5527136788005E-15,0.0));
#338=CARTESIAN_POINT('',(-38.007502004008,3.5527136788005E-15,0.0));
#339=CARTESIAN_POINT('',(0.0,49.965,4.44089209850063E-16));
#340=CARTESIAN_POINT('',(0.0,3.5527136788005E-15,49.8999999999999));
#341=CARTESIAN_POINT('',(-35.5075020040081,3.5527136788005E-15,49.8999999999999));
#342=CARTESIAN_POINT('',(0.0,3.5527136788005E-15,0.0));
#343=CARTESIAN_POINT('',(0.0,35.5075020040081,49.9));
#344=MECHANICAL_DESIGN_GEOMETRIC_PRESENTATION_REPRESENTATION('',(#24),#345);
#345=(GEOMETRIC_REPRESENTATION_CONTEXT(3)GLOBAL_UNCERTAINTY_ASSIGNED_CONTEXT((#346))
     GLOBAL_UNIT_ASSIGNED_CONTEXT((#352,#348,#347))REPRESENTATION_CONTEXT('392','TOP_LEVEL_ASSEMBLY_PART'));
#346=UNCERTAINTY_MEASURE_WITH_UNIT(LENGTH_MEASURE(2.0E-5),#352,'DISTANCE_ACCURACY_VALUE',
     'Maximum Tolerance applied to model');
#347=(NAMED_UNIT(*)SI_UNIT($,.STERADIAN.)SOLID_ANGLE_UNIT());
#348=(CONVERSION_BASED_UNIT('DEGREE',#350)NAMED_UNIT(*)PLANE_ANGLE_UNIT());
#349=DIMENSIONAL_EXPONENTS(0.0,0.0,0.0,0.0,0.0,0.0,0.0);
#350=PLANE_ANGLE_MEASURE_WITH_UNIT(PLANE_ANGLE_MEASURE(0.0174532925),#351);
#351=(NAMED_UNIT(*)PLANE_ANGLE_UNIT()SI_UNIT($,.RADIAN.));
#352=(LENGTH_UNIT()NAMED_UNIT(*)SI_UNIT(.MILLI.,.METRE.));
#353=CARTESIAN_POINT('',(0.0,0.0,0.0));
#354=DIRECTION('',(0.0,0.0,1.0));
#355=DIRECTION('',(1.0,0.0,0.0));
#356=AXIS2_PLACEMENT_3D('PCS',#353,#354,#355);
#357=CARTESIAN_POINT('',(0.0,0.0,0.0));
#358=DIRECTION('',(0.0,0.0,1.0));
#359=DIRECTION('',(1.0,0.0,0.0));
#360=AXIS2_PLACEMENT_3D('MCS',#357,#358,#359);
#361=CARTESIAN_POINT('',(0.0,0.0,-115.0));
#362=DIRECTION('',(0.0,0.0,1.0));
#363=DIRECTION('',(1.0,0.0,0.0));
#364=AXIS2_PLACEMENT_3D('CSW',#361,#362,#363);
#365=CONSTRUCTIVE_GEOMETRY_REPRESENTATION('supplemental geometry',(#356,#360,#364),
     #345);
#366=CONSTRUCTIVE_GEOMETRY_REPRESENTATION_RELATIONSHIP('supplemental geometry',$,
     #22,#365);
ENDSEC;
END-ISO-10303-21;
