ISO-10303-21;
HEADER;
/* Generated by software containing ST-Developer
 * from STEP Tools, Inc. (www.steptools.com) 
 */
/* OPTION: using custom schema-name function */

FILE_DESCRIPTION(
/* description */ (''),
/* implementation_level */ '2;1');

FILE_NAME(
/* name */ '1493025657398.stp',
/* time_stamp */ '2017-04-24T11:21:08+02:00',
/* author */ (''),
/* organization */ ('SMS'),
/* preprocessor_version */ 'ST-DEVELOPER v15',
/* originating_system */ 'SIEMENS PLM Software NX 8.5',
/* authorisation */ '');

FILE_SCHEMA (('AUTOMOTIVE_DESIGN { 1 0 10303 214 3 1 1 1 }'));
ENDSEC;

DATA;
#10=CONSTRUCTIVE_GEOMETRY_REPRESENTATION_RELATIONSHIP(
'supplemental geometry','',#26,#11);
#11=CONSTRUCTIVE_GEOMETRY_REPRESENTATION('supplemental geometry',(#292,
#293,#294,#295),#499);
#12=GEOMETRICALLY_BOUNDED_WIREFRAME_SHAPE_REPRESENTATION(
'392.41014-6340120B-636200730439629428-1-None',(#27),#499);
#13=SHAPE_REPRESENTATION_RELATIONSHIP('None',
'relationship between 392.41014-6340120B-636200730439629428-1-None and
 392.41014-6340120B-636200730439629428-1-None',#26,#15);
#14=SHAPE_REPRESENTATION_RELATIONSHIP('None',
'relationship between 392.41014-6340120B-636200730439629428-1-None and
 392.41014-6340120B-636200730439629428-1-None',#26,#12);
#15=ADVANCED_BREP_SHAPE_REPRESENTATION(
'392.41014-6340120B-636200730439629428-1-None',(#33),#499);
#16=SHAPE_DEFINITION_REPRESENTATION(#17,#26);
#17=PRODUCT_DEFINITION_SHAPE('','',#18);
#18=PRODUCT_DEFINITION(' ','',#20,#19);
#19=PRODUCT_DEFINITION_CONTEXT('part definition',#25,'design');
#20=PRODUCT_DEFINITION_FORMATION_WITH_SPECIFIED_SOURCE(' ',' ',#22,
 .NOT_KNOWN.);
#21=PRODUCT_RELATED_PRODUCT_CATEGORY('part','',(#22));
#22=PRODUCT('392.41014-6340120B-636200730439629428-1',
'392.41014-6340120B-636200730439629428-1',' ',(#23));
#23=PRODUCT_CONTEXT(' ',#25,'mechanical');
#24=APPLICATION_PROTOCOL_DEFINITION('international standard',
'automotive_design',2010,#25);
#25=APPLICATION_CONTEXT(
'core data for automotive mechanical design processes');
#26=SHAPE_REPRESENTATION('392.41014-6340120B-636200730439629428-1-None',
(#291),#499);
#27=GEOMETRIC_CURVE_SET('None',(#430,#431,#432));
#28=SURFACE_STYLE_USAGE(.BOTH.,#29);
#29=SURFACE_SIDE_STYLE('',(#30));
#30=SURFACE_STYLE_FILL_AREA(#31);
#31=FILL_AREA_STYLE('',(#32));
#32=FILL_AREA_STYLE_COLOUR('',#290);
#33=MANIFOLD_SOLID_BREP('NOCUT',#34);
#34=CLOSED_SHELL('',(#87,#88,#89,#90,#91,#92,#93,#94,#95,#96,#97,#98,#99,
#100,#101,#102,#103,#104,#105,#106,#107));
#35=TOROIDAL_SURFACE('',#331,30.5,1.);
#36=CYLINDRICAL_SURFACE('',#303,31.47);
#37=CYLINDRICAL_SURFACE('',#309,27.475);
#38=CYLINDRICAL_SURFACE('',#315,31.47);
#39=CYLINDRICAL_SURFACE('',#319,26.5);
#40=CYLINDRICAL_SURFACE('',#323,23.75);
#41=CYLINDRICAL_SURFACE('',#327,25.);
#42=CYLINDRICAL_SURFACE('',#333,31.5);
#43=CONICAL_SURFACE('',#299,22.7224348697396,2.86813194068655);
#44=CONICAL_SURFACE('',#305,31.47,60.0000000000001);
#45=CONICAL_SURFACE('',#313,28.9375471694755,59.9999999999999);
#46=CONICAL_SURFACE('',#321,26.5,30.);
#47=CONICAL_SURFACE('',#325,23.75,30.0000000000001);
#48=CONICAL_SURFACE('',#335,31.5,60.);
#49=FACE_BOUND('',#118,.T.);
#50=FACE_BOUND('',#119,.T.);
#51=FACE_BOUND('',#120,.T.);
#52=FACE_BOUND('',#121,.T.);
#53=FACE_BOUND('',#122,.T.);
#54=FACE_BOUND('',#123,.T.);
#55=FACE_BOUND('',#124,.T.);
#56=FACE_BOUND('',#125,.T.);
#57=FACE_BOUND('',#126,.T.);
#58=FACE_BOUND('',#127,.T.);
#59=FACE_BOUND('',#128,.T.);
#60=FACE_BOUND('',#129,.T.);
#61=FACE_BOUND('',#130,.T.);
#62=FACE_BOUND('',#131,.T.);
#63=FACE_BOUND('',#132,.T.);
#64=FACE_BOUND('',#133,.T.);
#65=FACE_BOUND('',#134,.T.);
#66=FACE_BOUND('',#135,.T.);
#67=FACE_BOUND('',#136,.T.);
#68=FACE_BOUND('',#137,.T.);
#69=FACE_BOUND('',#138,.T.);
#70=FACE_BOUND('',#139,.T.);
#71=FACE_BOUND('',#140,.T.);
#72=FACE_BOUND('',#141,.T.);
#73=FACE_BOUND('',#142,.T.);
#74=FACE_BOUND('',#143,.T.);
#75=FACE_BOUND('',#144,.T.);
#76=FACE_BOUND('',#145,.T.);
#77=FACE_BOUND('',#146,.T.);
#78=FACE_BOUND('',#147,.T.);
#79=FACE_BOUND('',#148,.T.);
#80=FACE_BOUND('',#149,.T.);
#81=FACE_BOUND('',#150,.T.);
#82=FACE_BOUND('',#151,.T.);
#83=FACE_BOUND('',#152,.T.);
#84=FACE_BOUND('',#153,.T.);
#85=FACE_BOUND('',#154,.T.);
#86=FACE_BOUND('',#155,.T.);
#87=ADVANCED_FACE('',(#115),#108,.T.);
#88=ADVANCED_FACE('',(#49,#50),#43,.T.);
#89=ADVANCED_FACE('',(#51,#52),#109,.T.);
#90=ADVANCED_FACE('',(#53,#54),#36,.T.);
#91=ADVANCED_FACE('',(#55,#56),#44,.T.);
#92=ADVANCED_FACE('',(#57,#58),#110,.T.);
#93=ADVANCED_FACE('',(#59,#60),#37,.T.);
#94=ADVANCED_FACE('',(#61,#62),#111,.T.);
#95=ADVANCED_FACE('',(#63,#64),#45,.T.);
#96=ADVANCED_FACE('',(#65,#66),#38,.T.);
#97=ADVANCED_FACE('',(#67,#68),#112,.T.);
#98=ADVANCED_FACE('',(#69,#70),#39,.T.);
#99=ADVANCED_FACE('',(#71,#72),#46,.T.);
#100=ADVANCED_FACE('',(#73,#74),#40,.T.);
#101=ADVANCED_FACE('',(#75,#76),#47,.T.);
#102=ADVANCED_FACE('',(#77,#78),#41,.T.);
#103=ADVANCED_FACE('',(#79,#80),#113,.T.);
#104=ADVANCED_FACE('',(#81,#82),#35,.T.);
#105=ADVANCED_FACE('',(#83,#84),#42,.T.);
#106=ADVANCED_FACE('',(#85,#86),#48,.T.);
#107=ADVANCED_FACE('',(#116),#114,.T.);
#108=PLANE('',#297);
#109=PLANE('',#301);
#110=PLANE('',#307);
#111=PLANE('',#311);
#112=PLANE('',#317);
#113=PLANE('',#329);
#114=PLANE('',#336);
#115=FACE_OUTER_BOUND('',#117,.T.);
#116=FACE_OUTER_BOUND('',#156,.T.);
#117=EDGE_LOOP('',(#157));
#118=EDGE_LOOP('',(#158));
#119=EDGE_LOOP('',(#159));
#120=EDGE_LOOP('',(#160));
#121=EDGE_LOOP('',(#161));
#122=EDGE_LOOP('',(#162));
#123=EDGE_LOOP('',(#163));
#124=EDGE_LOOP('',(#164));
#125=EDGE_LOOP('',(#165));
#126=EDGE_LOOP('',(#166));
#127=EDGE_LOOP('',(#167));
#128=EDGE_LOOP('',(#168));
#129=EDGE_LOOP('',(#169));
#130=EDGE_LOOP('',(#170));
#131=EDGE_LOOP('',(#171));
#132=EDGE_LOOP('',(#172));
#133=EDGE_LOOP('',(#173));
#134=EDGE_LOOP('',(#174));
#135=EDGE_LOOP('',(#175));
#136=EDGE_LOOP('',(#176));
#137=EDGE_LOOP('',(#177));
#138=EDGE_LOOP('',(#178));
#139=EDGE_LOOP('',(#179));
#140=EDGE_LOOP('',(#180));
#141=EDGE_LOOP('',(#181));
#142=EDGE_LOOP('',(#182));
#143=EDGE_LOOP('',(#183));
#144=EDGE_LOOP('',(#184));
#145=EDGE_LOOP('',(#185));
#146=EDGE_LOOP('',(#186));
#147=EDGE_LOOP('',(#187));
#148=EDGE_LOOP('',(#188));
#149=EDGE_LOOP('',(#189));
#150=EDGE_LOOP('',(#190));
#151=EDGE_LOOP('',(#191));
#152=EDGE_LOOP('',(#192));
#153=EDGE_LOOP('',(#193));
#154=EDGE_LOOP('',(#194));
#155=EDGE_LOOP('',(#195));
#156=EDGE_LOOP('',(#196));
#157=ORIENTED_EDGE('',*,*,#217,.T.);
#158=ORIENTED_EDGE('',*,*,#218,.T.);
#159=ORIENTED_EDGE('',*,*,#217,.F.);
#160=ORIENTED_EDGE('',*,*,#219,.T.);
#161=ORIENTED_EDGE('',*,*,#218,.F.);
#162=ORIENTED_EDGE('',*,*,#220,.T.);
#163=ORIENTED_EDGE('',*,*,#219,.F.);
#164=ORIENTED_EDGE('',*,*,#221,.T.);
#165=ORIENTED_EDGE('',*,*,#220,.F.);
#166=ORIENTED_EDGE('',*,*,#222,.T.);
#167=ORIENTED_EDGE('',*,*,#221,.F.);
#168=ORIENTED_EDGE('',*,*,#223,.T.);
#169=ORIENTED_EDGE('',*,*,#222,.F.);
#170=ORIENTED_EDGE('',*,*,#224,.T.);
#171=ORIENTED_EDGE('',*,*,#223,.F.);
#172=ORIENTED_EDGE('',*,*,#225,.T.);
#173=ORIENTED_EDGE('',*,*,#224,.F.);
#174=ORIENTED_EDGE('',*,*,#226,.T.);
#175=ORIENTED_EDGE('',*,*,#225,.F.);
#176=ORIENTED_EDGE('',*,*,#227,.T.);
#177=ORIENTED_EDGE('',*,*,#226,.F.);
#178=ORIENTED_EDGE('',*,*,#228,.T.);
#179=ORIENTED_EDGE('',*,*,#227,.F.);
#180=ORIENTED_EDGE('',*,*,#229,.T.);
#181=ORIENTED_EDGE('',*,*,#228,.F.);
#182=ORIENTED_EDGE('',*,*,#230,.T.);
#183=ORIENTED_EDGE('',*,*,#229,.F.);
#184=ORIENTED_EDGE('',*,*,#231,.T.);
#185=ORIENTED_EDGE('',*,*,#230,.F.);
#186=ORIENTED_EDGE('',*,*,#232,.T.);
#187=ORIENTED_EDGE('',*,*,#231,.F.);
#188=ORIENTED_EDGE('',*,*,#233,.T.);
#189=ORIENTED_EDGE('',*,*,#232,.F.);
#190=ORIENTED_EDGE('',*,*,#234,.T.);
#191=ORIENTED_EDGE('',*,*,#233,.F.);
#192=ORIENTED_EDGE('',*,*,#235,.T.);
#193=ORIENTED_EDGE('',*,*,#234,.F.);
#194=ORIENTED_EDGE('',*,*,#236,.T.);
#195=ORIENTED_EDGE('',*,*,#235,.F.);
#196=ORIENTED_EDGE('',*,*,#236,.F.);
#197=VERTEX_POINT('',#438);
#198=VERTEX_POINT('',#441);
#199=VERTEX_POINT('',#444);
#200=VERTEX_POINT('',#447);
#201=VERTEX_POINT('',#450);
#202=VERTEX_POINT('',#453);
#203=VERTEX_POINT('',#456);
#204=VERTEX_POINT('',#459);
#205=VERTEX_POINT('',#462);
#206=VERTEX_POINT('',#465);
#207=VERTEX_POINT('',#468);
#208=VERTEX_POINT('',#471);
#209=VERTEX_POINT('',#474);
#210=VERTEX_POINT('',#477);
#211=VERTEX_POINT('',#480);
#212=VERTEX_POINT('',#483);
#213=VERTEX_POINT('',#486);
#214=VERTEX_POINT('',#489);
#215=VERTEX_POINT('',#492);
#216=VERTEX_POINT('',#495);
#217=EDGE_CURVE('',#197,#197,#237,.T.);
#218=EDGE_CURVE('',#198,#198,#238,.T.);
#219=EDGE_CURVE('',#199,#199,#239,.T.);
#220=EDGE_CURVE('',#200,#200,#240,.T.);
#221=EDGE_CURVE('',#201,#201,#241,.T.);
#222=EDGE_CURVE('',#202,#202,#242,.T.);
#223=EDGE_CURVE('',#203,#203,#243,.T.);
#224=EDGE_CURVE('',#204,#204,#244,.T.);
#225=EDGE_CURVE('',#205,#205,#245,.T.);
#226=EDGE_CURVE('',#206,#206,#246,.T.);
#227=EDGE_CURVE('',#207,#207,#247,.T.);
#228=EDGE_CURVE('',#208,#208,#248,.T.);
#229=EDGE_CURVE('',#209,#209,#249,.T.);
#230=EDGE_CURVE('',#210,#210,#250,.T.);
#231=EDGE_CURVE('',#211,#211,#251,.T.);
#232=EDGE_CURVE('',#212,#212,#252,.T.);
#233=EDGE_CURVE('',#213,#213,#253,.T.);
#234=EDGE_CURVE('',#214,#214,#254,.T.);
#235=EDGE_CURVE('',#215,#215,#255,.T.);
#236=EDGE_CURVE('',#216,#216,#256,.T.);
#237=CIRCLE('',#296,22.7224348697396);
#238=CIRCLE('',#298,24.3206312625251);
#239=CIRCLE('',#300,31.47);
#240=CIRCLE('',#302,31.47);
#241=CIRCLE('',#304,28.9375471694755);
#242=CIRCLE('',#306,27.475);
#243=CIRCLE('',#308,27.475);
#244=CIRCLE('',#310,28.9375471694755);
#245=CIRCLE('',#312,31.47);
#246=CIRCLE('',#314,31.47);
#247=CIRCLE('',#316,26.5);
#248=CIRCLE('',#318,26.5);
#249=CIRCLE('',#320,23.75);
#250=CIRCLE('',#322,23.75);
#251=CIRCLE('',#324,25.);
#252=CIRCLE('',#326,25.);
#253=CIRCLE('',#328,30.5);
#254=CIRCLE('',#330,31.5);
#255=CIRCLE('',#332,31.5);
#256=CIRCLE('',#334,26.3038475772934);
#257=CURVE_STYLE('',#261,POSITIVE_LENGTH_MEASURE(0.13),#288);
#258=CURVE_STYLE('',#262,POSITIVE_LENGTH_MEASURE(0.18),#288);
#259=CURVE_STYLE('',#263,POSITIVE_LENGTH_MEASURE(0.18),#288);
#260=CURVE_STYLE('',#264,POSITIVE_LENGTH_MEASURE(0.18),#289);
#261=DRAUGHTING_PRE_DEFINED_CURVE_FONT('continuous');
#262=DRAUGHTING_PRE_DEFINED_CURVE_FONT('continuous');
#263=DRAUGHTING_PRE_DEFINED_CURVE_FONT('continuous');
#264=DRAUGHTING_PRE_DEFINED_CURVE_FONT('continuous');
#265=PRESENTATION_LAYER_ASSIGNMENT('1','Layer 1',(#430,#431,#432,#292,#293,
#294,#295,#33));
#266=STYLED_ITEM('',(#274),#430);
#267=STYLED_ITEM('',(#275),#431);
#268=STYLED_ITEM('',(#276),#432);
#269=STYLED_ITEM('',(#277),#292);
#270=STYLED_ITEM('',(#278),#293);
#271=STYLED_ITEM('',(#279),#294);
#272=STYLED_ITEM('',(#280),#295);
#273=STYLED_ITEM('',(#281),#33);
#274=PRESENTATION_STYLE_ASSIGNMENT((#282));
#275=PRESENTATION_STYLE_ASSIGNMENT((#283));
#276=PRESENTATION_STYLE_ASSIGNMENT((#284));
#277=PRESENTATION_STYLE_ASSIGNMENT((#257));
#278=PRESENTATION_STYLE_ASSIGNMENT((#258));
#279=PRESENTATION_STYLE_ASSIGNMENT((#259));
#280=PRESENTATION_STYLE_ASSIGNMENT((#260));
#281=PRESENTATION_STYLE_ASSIGNMENT((#28));
#282=POINT_STYLE('',#285,POSITIVE_LENGTH_MEASURE(3.),#288);
#283=POINT_STYLE('',#286,POSITIVE_LENGTH_MEASURE(3.),#288);
#284=POINT_STYLE('',#287,POSITIVE_LENGTH_MEASURE(3.),#289);
#285=PRE_DEFINED_POINT_MARKER_SYMBOL('plus');
#286=PRE_DEFINED_POINT_MARKER_SYMBOL('plus');
#287=PRE_DEFINED_POINT_MARKER_SYMBOL('plus');
#288=COLOUR_RGB('Strong Stone',0.576470588235294,0.54508278019379,0.392156862745098);
#289=COLOUR_RGB('Medium Maroon',0.6,0.4,0.4);
#290=COLOUR_RGB('TLS_NOCUT',0.499992370489052,0.499992370489052,0.499992370489052);
#291=AXIS2_PLACEMENT_3D('',#429,#337,#338);
#292=AXIS2_PLACEMENT_3D('',#433,#339,#340);
#293=AXIS2_PLACEMENT_3D('PCS',#434,#341,#342);
#294=AXIS2_PLACEMENT_3D('MCS',#435,#343,#344);
#295=AXIS2_PLACEMENT_3D('CSW',#436,#345,#346);
#296=AXIS2_PLACEMENT_3D('',#437,#347,#348);
#297=AXIS2_PLACEMENT_3D('',#439,#349,#350);
#298=AXIS2_PLACEMENT_3D('',#440,#351,#352);
#299=AXIS2_PLACEMENT_3D('',#442,#353,#354);
#300=AXIS2_PLACEMENT_3D('',#443,#355,#356);
#301=AXIS2_PLACEMENT_3D('',#445,#357,#358);
#302=AXIS2_PLACEMENT_3D('',#446,#359,#360);
#303=AXIS2_PLACEMENT_3D('',#448,#361,#362);
#304=AXIS2_PLACEMENT_3D('',#449,#363,#364);
#305=AXIS2_PLACEMENT_3D('',#451,#365,#366);
#306=AXIS2_PLACEMENT_3D('',#452,#367,#368);
#307=AXIS2_PLACEMENT_3D('',#454,#369,#370);
#308=AXIS2_PLACEMENT_3D('',#455,#371,#372);
#309=AXIS2_PLACEMENT_3D('',#457,#373,#374);
#310=AXIS2_PLACEMENT_3D('',#458,#375,#376);
#311=AXIS2_PLACEMENT_3D('',#460,#377,#378);
#312=AXIS2_PLACEMENT_3D('',#461,#379,#380);
#313=AXIS2_PLACEMENT_3D('',#463,#381,#382);
#314=AXIS2_PLACEMENT_3D('',#464,#383,#384);
#315=AXIS2_PLACEMENT_3D('',#466,#385,#386);
#316=AXIS2_PLACEMENT_3D('',#467,#387,#388);
#317=AXIS2_PLACEMENT_3D('',#469,#389,#390);
#318=AXIS2_PLACEMENT_3D('',#470,#391,#392);
#319=AXIS2_PLACEMENT_3D('',#472,#393,#394);
#320=AXIS2_PLACEMENT_3D('',#473,#395,#396);
#321=AXIS2_PLACEMENT_3D('',#475,#397,#398);
#322=AXIS2_PLACEMENT_3D('',#476,#399,#400);
#323=AXIS2_PLACEMENT_3D('',#478,#401,#402);
#324=AXIS2_PLACEMENT_3D('',#479,#403,#404);
#325=AXIS2_PLACEMENT_3D('',#481,#405,#406);
#326=AXIS2_PLACEMENT_3D('',#482,#407,#408);
#327=AXIS2_PLACEMENT_3D('',#484,#409,#410);
#328=AXIS2_PLACEMENT_3D('',#485,#411,#412);
#329=AXIS2_PLACEMENT_3D('',#487,#413,#414);
#330=AXIS2_PLACEMENT_3D('',#488,#415,#416);
#331=AXIS2_PLACEMENT_3D('',#490,#417,#418);
#332=AXIS2_PLACEMENT_3D('',#491,#419,#420);
#333=AXIS2_PLACEMENT_3D('',#493,#421,#422);
#334=AXIS2_PLACEMENT_3D('',#494,#423,#424);
#335=AXIS2_PLACEMENT_3D('',#496,#425,#426);
#336=AXIS2_PLACEMENT_3D('',#497,#427,#428);
#337=DIRECTION('',(0.,0.,1.));
#338=DIRECTION('',(1.,0.,0.));
#339=DIRECTION('',(0.,0.,1.));
#340=DIRECTION('',(1.,0.,0.));
#341=DIRECTION('',(0.,0.,1.));
#342=DIRECTION('',(1.,0.,0.));
#343=DIRECTION('',(0.,0.,1.));
#344=DIRECTION('',(1.,0.,0.));
#345=DIRECTION('',(0.,0.,1.));
#346=DIRECTION('',(1.,0.,0.));
#347=DIRECTION('',(0.,0.,1.));
#348=DIRECTION('',(1.,0.,0.));
#349=DIRECTION('',(0.,0.,1.));
#350=DIRECTION('',(-1.,0.,0.));
#351=DIRECTION('',(0.,0.,1.));
#352=DIRECTION('',(1.,0.,0.));
#353=DIRECTION('',(0.,0.,-1.));
#354=DIRECTION('',(1.,0.,5.71709102105051E-016));
#355=DIRECTION('',(0.,0.,1.));
#356=DIRECTION('',(1.,0.,0.));
#357=DIRECTION('',(0.,0.,1.));
#358=DIRECTION('',(-1.,0.,0.));
#359=DIRECTION('',(0.,0.,1.));
#360=DIRECTION('',(1.,0.,0.));
#361=DIRECTION('',(0.,0.,1.));
#362=DIRECTION('',(-1.,0.,0.));
#363=DIRECTION('',(0.,0.,1.));
#364=DIRECTION('',(1.,0.,0.));
#365=DIRECTION('',(0.,0.,1.));
#366=DIRECTION('',(-1.,0.,-4.91835273088789E-018));
#367=DIRECTION('',(0.,0.,1.));
#368=DIRECTION('',(1.,0.,0.));
#369=DIRECTION('',(0.,0.,-1.));
#370=DIRECTION('',(1.,0.,0.));
#371=DIRECTION('',(0.,0.,1.));
#372=DIRECTION('',(1.,0.,0.));
#373=DIRECTION('',(0.,0.,1.));
#374=DIRECTION('',(-1.,0.,0.));
#375=DIRECTION('',(0.,0.,1.));
#376=DIRECTION('',(1.,0.,0.));
#377=DIRECTION('',(0.,0.,1.));
#378=DIRECTION('',(-1.,0.,0.));
#379=DIRECTION('',(0.,0.,1.));
#380=DIRECTION('',(1.,0.,0.));
#381=DIRECTION('',(0.,0.,-1.));
#382=DIRECTION('',(1.,0.,1.97017029818412E-018));
#383=DIRECTION('',(0.,0.,1.));
#384=DIRECTION('',(1.,0.,0.));
#385=DIRECTION('',(0.,0.,1.));
#386=DIRECTION('',(-1.,0.,0.));
#387=DIRECTION('',(0.,0.,1.));
#388=DIRECTION('',(1.,0.,0.));
#389=DIRECTION('',(0.,0.,-1.));
#390=DIRECTION('',(1.,0.,0.));
#391=DIRECTION('',(0.,0.,1.));
#392=DIRECTION('',(1.,0.,0.));
#393=DIRECTION('',(0.,0.,1.));
#394=DIRECTION('',(-1.,0.,0.));
#395=DIRECTION('',(0.,0.,1.));
#396=DIRECTION('',(1.,0.,0.));
#397=DIRECTION('',(0.,0.,1.));
#398=DIRECTION('',(-1.,0.,-6.89465013890212E-017));
#399=DIRECTION('',(0.,0.,1.));
#400=DIRECTION('',(1.,0.,0.));
#401=DIRECTION('',(0.,0.,1.));
#402=DIRECTION('',(-1.,0.,0.));
#403=DIRECTION('',(0.,0.,1.));
#404=DIRECTION('',(1.,0.,0.));
#405=DIRECTION('',(0.,0.,-1.));
#406=DIRECTION('',(1.,0.,4.6174618509234E-017));
#407=DIRECTION('',(0.,0.,1.));
#408=DIRECTION('',(1.,0.,0.));
#409=DIRECTION('',(0.,0.,1.));
#410=DIRECTION('',(-1.,0.,0.));
#411=DIRECTION('',(0.,0.,1.));
#412=DIRECTION('',(1.,0.,0.));
#413=DIRECTION('',(0.,0.,1.));
#414=DIRECTION('',(-1.,0.,0.));
#415=DIRECTION('',(0.,0.,1.));
#416=DIRECTION('',(1.,0.,0.));
#417=DIRECTION('',(0.,0.,1.));
#418=DIRECTION('',(-1.,0.,0.));
#419=DIRECTION('',(0.,0.,1.));
#420=DIRECTION('',(1.,0.,0.));
#421=DIRECTION('',(0.,0.,1.));
#422=DIRECTION('',(-1.,0.,0.));
#423=DIRECTION('',(0.,0.,1.));
#424=DIRECTION('',(1.,0.,0.));
#425=DIRECTION('',(0.,0.,1.));
#426=DIRECTION('',(-1.,0.,0.));
#427=DIRECTION('',(0.,0.,-1.));
#428=DIRECTION('',(1.,0.,0.));
#429=CARTESIAN_POINT('',(0.,0.,0.));
#430=CARTESIAN_POINT('',(0.,0.,0.));
#431=CARTESIAN_POINT('',(0.,0.,0.));
#432=CARTESIAN_POINT('',(0.,0.,-105.));
#433=CARTESIAN_POINT('',(0.,0.,0.));
#434=CARTESIAN_POINT('',(0.,0.,0.));
#435=CARTESIAN_POINT('',(0.,0.,0.));
#436=CARTESIAN_POINT('',(0.,0.,-105.));
#437=CARTESIAN_POINT('',(0.,0.,31.9));
#438=CARTESIAN_POINT('',(22.7224348697396,0.,31.9));
#439=CARTESIAN_POINT('',(17.025,0.,31.9));
#440=CARTESIAN_POINT('',(0.,0.,0.));
#441=CARTESIAN_POINT('',(24.3206312625251,0.,0.));
#442=CARTESIAN_POINT('',(0.,0.,31.9));
#443=CARTESIAN_POINT('',(0.,0.,0.));
#444=CARTESIAN_POINT('',(31.47,0.,0.));
#445=CARTESIAN_POINT('',(24.3206312625251,0.,4.44089209850063E-016));
#446=CARTESIAN_POINT('',(0.,0.,-14.6253876765866));
#447=CARTESIAN_POINT('',(31.47,0.,-14.6253876765866));
#448=CARTESIAN_POINT('',(0.,0.,-119.95));
#449=CARTESIAN_POINT('',(0.,0.,-16.0875));
#450=CARTESIAN_POINT('',(28.9375471694755,0.,-16.0875));
#451=CARTESIAN_POINT('',(0.,0.,-14.6253876765866));
#452=CARTESIAN_POINT('',(0.,0.,-16.0875));
#453=CARTESIAN_POINT('',(27.475,0.,-16.0875));
#454=CARTESIAN_POINT('',(28.9375471694755,0.,-16.0875));
#455=CARTESIAN_POINT('',(0.,0.,-19.9125));
#456=CARTESIAN_POINT('',(27.475,0.,-19.9125));
#457=CARTESIAN_POINT('',(0.,0.,-119.95));
#458=CARTESIAN_POINT('',(0.,0.,-19.9125));
#459=CARTESIAN_POINT('',(28.9375471694755,0.,-19.9125));
#460=CARTESIAN_POINT('',(27.475,0.,-19.9125));
#461=CARTESIAN_POINT('',(0.,0.,-21.3746123234133));
#462=CARTESIAN_POINT('',(31.47,0.,-21.3746123234133));
#463=CARTESIAN_POINT('',(0.,0.,-19.9125));
#464=CARTESIAN_POINT('',(0.,0.,-25.95));
#465=CARTESIAN_POINT('',(31.47,0.,-25.95));
#466=CARTESIAN_POINT('',(0.,0.,-119.95));
#467=CARTESIAN_POINT('',(0.,0.,-25.95));
#468=CARTESIAN_POINT('',(26.5,0.,-25.95));
#469=CARTESIAN_POINT('',(31.47,0.,-25.95));
#470=CARTESIAN_POINT('',(0.,0.,-79.1868602791856));
#471=CARTESIAN_POINT('',(26.5,0.,-79.1868602791856));
#472=CARTESIAN_POINT('',(0.,0.,-119.95));
#473=CARTESIAN_POINT('',(0.,0.,-83.95));
#474=CARTESIAN_POINT('',(23.75,0.,-83.95));
#475=CARTESIAN_POINT('',(0.,0.,-79.1868602791856));
#476=CARTESIAN_POINT('',(0.,0.,-87.95));
#477=CARTESIAN_POINT('',(23.75,0.,-87.95));
#478=CARTESIAN_POINT('',(0.,0.,-119.95));
#479=CARTESIAN_POINT('',(0.,0.,-90.1150635094611));
#480=CARTESIAN_POINT('',(25.,0.,-90.1150635094611));
#481=CARTESIAN_POINT('',(0.,0.,-87.95));
#482=CARTESIAN_POINT('',(0.,0.,-94.45));
#483=CARTESIAN_POINT('',(25.,0.,-94.45));
#484=CARTESIAN_POINT('',(0.,0.,-119.95));
#485=CARTESIAN_POINT('',(0.,0.,-94.45));
#486=CARTESIAN_POINT('',(30.5,0.,-94.45));
#487=CARTESIAN_POINT('',(25.,0.,-94.45));
#488=CARTESIAN_POINT('',(0.,0.,-95.45));
#489=CARTESIAN_POINT('',(31.5,0.,-95.45));
#490=CARTESIAN_POINT('',(0.,0.,-95.45));
#491=CARTESIAN_POINT('',(0.,0.,-116.95));
#492=CARTESIAN_POINT('',(31.5,0.,-116.95));
#493=CARTESIAN_POINT('',(0.,0.,-119.95));
#494=CARTESIAN_POINT('',(0.,0.,-119.95));
#495=CARTESIAN_POINT('',(26.3038475772934,0.,-119.95));
#496=CARTESIAN_POINT('',(0.,0.,-116.95));
#497=CARTESIAN_POINT('',(26.3038475772934,0.,-119.95));
#498=MECHANICAL_DESIGN_GEOMETRIC_PRESENTATION_REPRESENTATION('',(#266,#267,
#268,#269,#270,#271,#272,#273),#499);
#499=(
GEOMETRIC_REPRESENTATION_CONTEXT(3)
GLOBAL_UNCERTAINTY_ASSIGNED_CONTEXT((#500))
GLOBAL_UNIT_ASSIGNED_CONTEXT((#506,#502,#501))
REPRESENTATION_CONTEXT('1493025657398','TOP_LEVEL_ASSEMBLY_PART')
);
#500=UNCERTAINTY_MEASURE_WITH_UNIT(LENGTH_MEASURE(2.E-005),#506,
'DISTANCE_ACCURACY_VALUE','Maximum Tolerance applied to model');
#501=(
NAMED_UNIT(*)
SI_UNIT($,.STERADIAN.)
SOLID_ANGLE_UNIT()
);
#502=(
CONVERSION_BASED_UNIT('DEGREE',#504)
NAMED_UNIT(#503)
PLANE_ANGLE_UNIT()
);
#503=DIMENSIONAL_EXPONENTS(0.,0.,0.,0.,0.,0.,0.);
#504=PLANE_ANGLE_MEASURE_WITH_UNIT(PLANE_ANGLE_MEASURE(0.0174532925),#505);
#505=(
NAMED_UNIT(*)
PLANE_ANGLE_UNIT()
SI_UNIT($,.RADIAN.)
);
#506=(
LENGTH_UNIT()
NAMED_UNIT(*)
SI_UNIT(.MILLI.,.METRE.)
);
ENDSEC;
END-ISO-10303-21;
