ISO-10303-21;
HEADER;
/* Generated by software containing ST-Developer
 * from STEP Tools, Inc. (www.steptools.com) 
 */
/* OPTION: using custom schema-name function */

FILE_DESCRIPTION(
/* description */ (''),
/* implementation_level */ '2;1');

FILE_NAME(
/* name */ '1493021246808.stp',
/* time_stamp */ '2017-04-24T10:07:30+02:00',
/* author */ (''),
/* organization */ ('SMS'),
/* preprocessor_version */ 'ST-DEVELOPER v15',
/* originating_system */ 'SIEMENS PLM Software NX 8.5',
/* authorisation */ '');

FILE_SCHEMA (('AUTOMOTIVE_DESIGN { 1 0 10303 214 3 1 1 1 }'));
ENDSEC;

DATA;
#10=CONSTRUCTIVE_GEOMETRY_REPRESENTATION_RELATIONSHIP(
'supplemental geometry','',#26,#11);
#11=CONSTRUCTIVE_GEOMETRY_REPRESENTATION('supplemental geometry',(#292,
#293,#294,#295),#513);
#12=GEOMETRICALLY_BOUNDED_WIREFRAME_SHAPE_REPRESENTATION(
'392.41014-5032072-636200719585167647-1-None',(#27),#513);
#13=SHAPE_REPRESENTATION_RELATIONSHIP('None',
'relationship between 392.41014-5032072-636200719585167647-1-None and 
392.41014-5032072-636200719585167647-1-None',#26,#15);
#14=SHAPE_REPRESENTATION_RELATIONSHIP('None',
'relationship between 392.41014-5032072-636200719585167647-1-None and 
392.41014-5032072-636200719585167647-1-None',#26,#12);
#15=ADVANCED_BREP_SHAPE_REPRESENTATION(
'392.41014-5032072-636200719585167647-1-None',(#33),#513);
#16=SHAPE_DEFINITION_REPRESENTATION(#17,#26);
#17=PRODUCT_DEFINITION_SHAPE('','',#18);
#18=PRODUCT_DEFINITION(' ','',#20,#19);
#19=PRODUCT_DEFINITION_CONTEXT('part definition',#25,'design');
#20=PRODUCT_DEFINITION_FORMATION_WITH_SPECIFIED_SOURCE(' ',' ',#22,
 .NOT_KNOWN.);
#21=PRODUCT_RELATED_PRODUCT_CATEGORY('part','',(#22));
#22=PRODUCT('392.41014-5032072-636200719585167647-1',
'392.41014-5032072-636200719585167647-1',' ',(#23));
#23=PRODUCT_CONTEXT(' ',#25,'mechanical');
#24=APPLICATION_PROTOCOL_DEFINITION('international standard',
'automotive_design',2010,#25);
#25=APPLICATION_CONTEXT(
'core data for automotive mechanical design processes');
#26=SHAPE_REPRESENTATION('392.41014-5032072-636200719585167647-1-None',
(#291),#513);
#27=GEOMETRIC_CURVE_SET('None',(#427,#428,#429));
#28=SURFACE_STYLE_USAGE(.BOTH.,#29);
#29=SURFACE_SIDE_STYLE('',(#30));
#30=SURFACE_STYLE_FILL_AREA(#31);
#31=FILL_AREA_STYLE('',(#32));
#32=FILL_AREA_STYLE_COLOUR('',#290);
#33=MANIFOLD_SOLID_BREP('NOCUT',#34);
#34=CLOSED_SHELL('',(#52,#53,#54,#55,#56,#57,#58,#59,#60,#61,#62,#63,#64,
#65,#66,#67,#68,#69,#70,#71,#72));
#35=FACE_OUTER_BOUND('',#154,.T.);
#36=FACE_OUTER_BOUND('',#155,.T.);
#37=CONICAL_SURFACE('',#305,20.,30.);
#38=CONICAL_SURFACE('',#309,18.766779825011,30.);
#39=CONICAL_SURFACE('',#317,24.975,60.0000000000001);
#40=CONICAL_SURFACE('',#325,22.4375471694755,60.);
#41=CONICAL_SURFACE('',#331,19.255001002004,2.86813194068656);
#42=CONICAL_SURFACE('',#335,19.8038475772934,59.9999999999998);
#43=B_SPLINE_CURVE_WITH_KNOTS('',3,(#448,#449,#450,#451,#452,#453,#454,
#455,#456,#457,#458,#459,#460,#461,#462,#463,#464,#465),.UNSPECIFIED.,.T.,
 .F.,(2,2,2,2,2,2,2,2,2,2,2),(-0.125,0.,0.125,0.25,0.375,0.5,0.625,0.75,
0.875,1.,1.125),.UNSPECIFIED.);
#44=PLANE('',#302);
#45=PLANE('',#313);
#46=PLANE('',#319);
#47=PLANE('',#323);
#48=PLANE('',#329);
#49=PLANE('',#332);
#50=PLANE('',#334);
#51=TOROIDAL_SURFACE('',#300,24.,1.);
#52=ADVANCED_FACE('',(#80,#81),#73,.T.);
#53=ADVANCED_FACE('',(#82,#83),#51,.T.);
#54=ADVANCED_FACE('',(#84,#85),#44,.T.);
#55=ADVANCED_FACE('',(#86,#87),#74,.T.);
#56=ADVANCED_FACE('',(#88,#89),#37,.T.);
#57=ADVANCED_FACE('',(#90,#91),#75,.T.);
#58=ADVANCED_FACE('',(#92,#93),#38,.T.);
#59=ADVANCED_FACE('',(#94,#95),#76,.T.);
#60=ADVANCED_FACE('',(#96,#97),#45,.T.);
#61=ADVANCED_FACE('',(#98,#99),#77,.T.);
#62=ADVANCED_FACE('',(#100,#101),#39,.T.);
#63=ADVANCED_FACE('',(#102,#103),#46,.T.);
#64=ADVANCED_FACE('',(#104,#105),#78,.T.);
#65=ADVANCED_FACE('',(#106,#107),#47,.T.);
#66=ADVANCED_FACE('',(#108,#109),#40,.T.);
#67=ADVANCED_FACE('',(#110,#111),#79,.T.);
#68=ADVANCED_FACE('',(#112,#113),#48,.T.);
#69=ADVANCED_FACE('',(#114,#115),#41,.T.);
#70=ADVANCED_FACE('',(#35),#49,.T.);
#71=ADVANCED_FACE('',(#36),#50,.T.);
#72=ADVANCED_FACE('',(#116,#117),#42,.T.);
#73=CYLINDRICAL_SURFACE('',#298,25.);
#74=CYLINDRICAL_SURFACE('',#304,20.);
#75=CYLINDRICAL_SURFACE('',#307,18.75);
#76=CYLINDRICAL_SURFACE('',#311,20.);
#77=CYLINDRICAL_SURFACE('',#315,24.975);
#78=CYLINDRICAL_SURFACE('',#321,21.475);
#79=CYLINDRICAL_SURFACE('',#327,24.975);
#80=FACE_BOUND('',#118,.T.);
#81=FACE_BOUND('',#119,.T.);
#82=FACE_BOUND('',#120,.T.);
#83=FACE_BOUND('',#121,.T.);
#84=FACE_BOUND('',#122,.T.);
#85=FACE_BOUND('',#123,.T.);
#86=FACE_BOUND('',#124,.T.);
#87=FACE_BOUND('',#125,.T.);
#88=FACE_BOUND('',#126,.T.);
#89=FACE_BOUND('',#127,.T.);
#90=FACE_BOUND('',#128,.T.);
#91=FACE_BOUND('',#129,.T.);
#92=FACE_BOUND('',#130,.T.);
#93=FACE_BOUND('',#131,.T.);
#94=FACE_BOUND('',#132,.T.);
#95=FACE_BOUND('',#133,.T.);
#96=FACE_BOUND('',#134,.T.);
#97=FACE_BOUND('',#135,.T.);
#98=FACE_BOUND('',#136,.T.);
#99=FACE_BOUND('',#137,.T.);
#100=FACE_BOUND('',#138,.T.);
#101=FACE_BOUND('',#139,.T.);
#102=FACE_BOUND('',#140,.T.);
#103=FACE_BOUND('',#141,.T.);
#104=FACE_BOUND('',#142,.T.);
#105=FACE_BOUND('',#143,.T.);
#106=FACE_BOUND('',#144,.T.);
#107=FACE_BOUND('',#145,.T.);
#108=FACE_BOUND('',#146,.T.);
#109=FACE_BOUND('',#147,.T.);
#110=FACE_BOUND('',#148,.T.);
#111=FACE_BOUND('',#149,.T.);
#112=FACE_BOUND('',#150,.T.);
#113=FACE_BOUND('',#151,.T.);
#114=FACE_BOUND('',#152,.T.);
#115=FACE_BOUND('',#153,.T.);
#116=FACE_BOUND('',#156,.T.);
#117=FACE_BOUND('',#157,.T.);
#118=EDGE_LOOP('',(#158));
#119=EDGE_LOOP('',(#159));
#120=EDGE_LOOP('',(#160));
#121=EDGE_LOOP('',(#161));
#122=EDGE_LOOP('',(#162));
#123=EDGE_LOOP('',(#163));
#124=EDGE_LOOP('',(#164));
#125=EDGE_LOOP('',(#165));
#126=EDGE_LOOP('',(#166));
#127=EDGE_LOOP('',(#167));
#128=EDGE_LOOP('',(#168));
#129=EDGE_LOOP('',(#169));
#130=EDGE_LOOP('',(#170));
#131=EDGE_LOOP('',(#171));
#132=EDGE_LOOP('',(#172));
#133=EDGE_LOOP('',(#173));
#134=EDGE_LOOP('',(#174));
#135=EDGE_LOOP('',(#175));
#136=EDGE_LOOP('',(#176));
#137=EDGE_LOOP('',(#177));
#138=EDGE_LOOP('',(#178));
#139=EDGE_LOOP('',(#179));
#140=EDGE_LOOP('',(#180));
#141=EDGE_LOOP('',(#181));
#142=EDGE_LOOP('',(#182));
#143=EDGE_LOOP('',(#183));
#144=EDGE_LOOP('',(#184));
#145=EDGE_LOOP('',(#185));
#146=EDGE_LOOP('',(#186));
#147=EDGE_LOOP('',(#187));
#148=EDGE_LOOP('',(#188));
#149=EDGE_LOOP('',(#189));
#150=EDGE_LOOP('',(#190));
#151=EDGE_LOOP('',(#191));
#152=EDGE_LOOP('',(#192));
#153=EDGE_LOOP('',(#193));
#154=EDGE_LOOP('',(#194));
#155=EDGE_LOOP('',(#195));
#156=EDGE_LOOP('',(#196));
#157=EDGE_LOOP('',(#197));
#158=ORIENTED_EDGE('',*,*,#218,.T.);
#159=ORIENTED_EDGE('',*,*,#219,.F.);
#160=ORIENTED_EDGE('',*,*,#220,.T.);
#161=ORIENTED_EDGE('',*,*,#218,.F.);
#162=ORIENTED_EDGE('',*,*,#221,.T.);
#163=ORIENTED_EDGE('',*,*,#220,.F.);
#164=ORIENTED_EDGE('',*,*,#222,.T.);
#165=ORIENTED_EDGE('',*,*,#221,.F.);
#166=ORIENTED_EDGE('',*,*,#223,.T.);
#167=ORIENTED_EDGE('',*,*,#222,.F.);
#168=ORIENTED_EDGE('',*,*,#224,.T.);
#169=ORIENTED_EDGE('',*,*,#223,.F.);
#170=ORIENTED_EDGE('',*,*,#225,.T.);
#171=ORIENTED_EDGE('',*,*,#224,.F.);
#172=ORIENTED_EDGE('',*,*,#226,.T.);
#173=ORIENTED_EDGE('',*,*,#225,.F.);
#174=ORIENTED_EDGE('',*,*,#227,.T.);
#175=ORIENTED_EDGE('',*,*,#226,.F.);
#176=ORIENTED_EDGE('',*,*,#228,.T.);
#177=ORIENTED_EDGE('',*,*,#227,.F.);
#178=ORIENTED_EDGE('',*,*,#229,.T.);
#179=ORIENTED_EDGE('',*,*,#228,.F.);
#180=ORIENTED_EDGE('',*,*,#230,.T.);
#181=ORIENTED_EDGE('',*,*,#229,.F.);
#182=ORIENTED_EDGE('',*,*,#231,.T.);
#183=ORIENTED_EDGE('',*,*,#230,.F.);
#184=ORIENTED_EDGE('',*,*,#232,.T.);
#185=ORIENTED_EDGE('',*,*,#231,.F.);
#186=ORIENTED_EDGE('',*,*,#233,.T.);
#187=ORIENTED_EDGE('',*,*,#232,.F.);
#188=ORIENTED_EDGE('',*,*,#234,.T.);
#189=ORIENTED_EDGE('',*,*,#233,.F.);
#190=ORIENTED_EDGE('',*,*,#235,.T.);
#191=ORIENTED_EDGE('',*,*,#234,.F.);
#192=ORIENTED_EDGE('',*,*,#236,.T.);
#193=ORIENTED_EDGE('',*,*,#235,.F.);
#194=ORIENTED_EDGE('',*,*,#236,.F.);
#195=ORIENTED_EDGE('',*,*,#237,.T.);
#196=ORIENTED_EDGE('',*,*,#219,.T.);
#197=ORIENTED_EDGE('',*,*,#237,.F.);
#198=VERTEX_POINT('',#435);
#199=VERTEX_POINT('',#437);
#200=VERTEX_POINT('',#440);
#201=VERTEX_POINT('',#443);
#202=VERTEX_POINT('',#446);
#203=VERTEX_POINT('',#466);
#204=VERTEX_POINT('',#469);
#205=VERTEX_POINT('',#472);
#206=VERTEX_POINT('',#475);
#207=VERTEX_POINT('',#478);
#208=VERTEX_POINT('',#481);
#209=VERTEX_POINT('',#484);
#210=VERTEX_POINT('',#487);
#211=VERTEX_POINT('',#490);
#212=VERTEX_POINT('',#493);
#213=VERTEX_POINT('',#496);
#214=VERTEX_POINT('',#499);
#215=VERTEX_POINT('',#502);
#216=VERTEX_POINT('',#505);
#217=VERTEX_POINT('',#509);
#218=EDGE_CURVE('',#198,#198,#238,.T.);
#219=EDGE_CURVE('',#199,#199,#239,.T.);
#220=EDGE_CURVE('',#200,#200,#240,.T.);
#221=EDGE_CURVE('',#201,#201,#241,.T.);
#222=EDGE_CURVE('',#202,#202,#242,.T.);
#223=EDGE_CURVE('',#203,#203,#43,.T.);
#224=EDGE_CURVE('',#204,#204,#243,.T.);
#225=EDGE_CURVE('',#205,#205,#244,.T.);
#226=EDGE_CURVE('',#206,#206,#245,.T.);
#227=EDGE_CURVE('',#207,#207,#246,.T.);
#228=EDGE_CURVE('',#208,#208,#247,.T.);
#229=EDGE_CURVE('',#209,#209,#248,.T.);
#230=EDGE_CURVE('',#210,#210,#249,.T.);
#231=EDGE_CURVE('',#211,#211,#250,.T.);
#232=EDGE_CURVE('',#212,#212,#251,.T.);
#233=EDGE_CURVE('',#213,#213,#252,.T.);
#234=EDGE_CURVE('',#214,#214,#253,.T.);
#235=EDGE_CURVE('',#215,#215,#254,.T.);
#236=EDGE_CURVE('',#216,#216,#255,.T.);
#237=EDGE_CURVE('',#217,#217,#256,.T.);
#238=CIRCLE('',#296,25.);
#239=CIRCLE('',#297,25.);
#240=CIRCLE('',#299,24.);
#241=CIRCLE('',#301,20.);
#242=CIRCLE('',#303,20.);
#243=CIRCLE('',#306,18.75);
#244=CIRCLE('',#308,20.);
#245=CIRCLE('',#310,20.);
#246=CIRCLE('',#312,24.975);
#247=CIRCLE('',#314,24.975);
#248=CIRCLE('',#316,22.4375471694755);
#249=CIRCLE('',#318,21.475);
#250=CIRCLE('',#320,21.475);
#251=CIRCLE('',#322,22.4375471694755);
#252=CIRCLE('',#324,24.975);
#253=CIRCLE('',#326,24.975);
#254=CIRCLE('',#328,19.255001002004);
#255=CIRCLE('',#330,18.0075060120241);
#256=CIRCLE('',#333,19.8038475772934);
#257=CURVE_STYLE('',#261,POSITIVE_LENGTH_MEASURE(0.13),#288);
#258=CURVE_STYLE('',#262,POSITIVE_LENGTH_MEASURE(0.18),#288);
#259=CURVE_STYLE('',#263,POSITIVE_LENGTH_MEASURE(0.18),#288);
#260=CURVE_STYLE('',#264,POSITIVE_LENGTH_MEASURE(0.18),#289);
#261=DRAUGHTING_PRE_DEFINED_CURVE_FONT('continuous');
#262=DRAUGHTING_PRE_DEFINED_CURVE_FONT('continuous');
#263=DRAUGHTING_PRE_DEFINED_CURVE_FONT('continuous');
#264=DRAUGHTING_PRE_DEFINED_CURVE_FONT('continuous');
#265=PRESENTATION_LAYER_ASSIGNMENT('1','Layer 1',(#427,#428,#429,#292,#293,
#294,#295,#33));
#266=STYLED_ITEM('',(#274),#427);
#267=STYLED_ITEM('',(#275),#428);
#268=STYLED_ITEM('',(#276),#429);
#269=STYLED_ITEM('',(#277),#292);
#270=STYLED_ITEM('',(#278),#293);
#271=STYLED_ITEM('',(#279),#294);
#272=STYLED_ITEM('',(#280),#295);
#273=STYLED_ITEM('',(#281),#33);
#274=PRESENTATION_STYLE_ASSIGNMENT((#282));
#275=PRESENTATION_STYLE_ASSIGNMENT((#283));
#276=PRESENTATION_STYLE_ASSIGNMENT((#284));
#277=PRESENTATION_STYLE_ASSIGNMENT((#257));
#278=PRESENTATION_STYLE_ASSIGNMENT((#258));
#279=PRESENTATION_STYLE_ASSIGNMENT((#259));
#280=PRESENTATION_STYLE_ASSIGNMENT((#260));
#281=PRESENTATION_STYLE_ASSIGNMENT((#28));
#282=POINT_STYLE('',#285,POSITIVE_LENGTH_MEASURE(3.),#288);
#283=POINT_STYLE('',#286,POSITIVE_LENGTH_MEASURE(3.),#288);
#284=POINT_STYLE('',#287,POSITIVE_LENGTH_MEASURE(3.),#289);
#285=PRE_DEFINED_POINT_MARKER_SYMBOL('plus');
#286=PRE_DEFINED_POINT_MARKER_SYMBOL('plus');
#287=PRE_DEFINED_POINT_MARKER_SYMBOL('plus');
#288=COLOUR_RGB('Strong Stone',0.576470588235294,0.54508278019379,0.392156862745098);
#289=COLOUR_RGB('Medium Maroon',0.6,0.4,0.4);
#290=COLOUR_RGB('TLS_NOCUT',0.499992370489052,0.499992370489052,0.499992370489052);
#291=AXIS2_PLACEMENT_3D('',#426,#336,#337);
#292=AXIS2_PLACEMENT_3D('',#430,#338,#339);
#293=AXIS2_PLACEMENT_3D('PCS',#431,#340,#341);
#294=AXIS2_PLACEMENT_3D('MCS',#432,#342,#343);
#295=AXIS2_PLACEMENT_3D('CSW',#433,#344,#345);
#296=AXIS2_PLACEMENT_3D('',#434,#346,#347);
#297=AXIS2_PLACEMENT_3D('',#436,#348,#349);
#298=AXIS2_PLACEMENT_3D('',#438,#350,#351);
#299=AXIS2_PLACEMENT_3D('',#439,#352,#353);
#300=AXIS2_PLACEMENT_3D('',#441,#354,#355);
#301=AXIS2_PLACEMENT_3D('',#442,#356,#357);
#302=AXIS2_PLACEMENT_3D('',#444,#358,#359);
#303=AXIS2_PLACEMENT_3D('',#445,#360,#361);
#304=AXIS2_PLACEMENT_3D('',#447,#362,#363);
#305=AXIS2_PLACEMENT_3D('',#467,#364,#365);
#306=AXIS2_PLACEMENT_3D('',#468,#366,#367);
#307=AXIS2_PLACEMENT_3D('',#470,#368,#369);
#308=AXIS2_PLACEMENT_3D('',#471,#370,#371);
#309=AXIS2_PLACEMENT_3D('',#473,#372,#373);
#310=AXIS2_PLACEMENT_3D('',#474,#374,#375);
#311=AXIS2_PLACEMENT_3D('',#476,#376,#377);
#312=AXIS2_PLACEMENT_3D('',#477,#378,#379);
#313=AXIS2_PLACEMENT_3D('',#479,#380,#381);
#314=AXIS2_PLACEMENT_3D('',#480,#382,#383);
#315=AXIS2_PLACEMENT_3D('',#482,#384,#385);
#316=AXIS2_PLACEMENT_3D('',#483,#386,#387);
#317=AXIS2_PLACEMENT_3D('',#485,#388,#389);
#318=AXIS2_PLACEMENT_3D('',#486,#390,#391);
#319=AXIS2_PLACEMENT_3D('',#488,#392,#393);
#320=AXIS2_PLACEMENT_3D('',#489,#394,#395);
#321=AXIS2_PLACEMENT_3D('',#491,#396,#397);
#322=AXIS2_PLACEMENT_3D('',#492,#398,#399);
#323=AXIS2_PLACEMENT_3D('',#494,#400,#401);
#324=AXIS2_PLACEMENT_3D('',#495,#402,#403);
#325=AXIS2_PLACEMENT_3D('',#497,#404,#405);
#326=AXIS2_PLACEMENT_3D('',#498,#406,#407);
#327=AXIS2_PLACEMENT_3D('',#500,#408,#409);
#328=AXIS2_PLACEMENT_3D('',#501,#410,#411);
#329=AXIS2_PLACEMENT_3D('',#503,#412,#413);
#330=AXIS2_PLACEMENT_3D('',#504,#414,#415);
#331=AXIS2_PLACEMENT_3D('',#506,#416,#417);
#332=AXIS2_PLACEMENT_3D('',#507,#418,#419);
#333=AXIS2_PLACEMENT_3D('',#508,#420,#421);
#334=AXIS2_PLACEMENT_3D('',#510,#422,#423);
#335=AXIS2_PLACEMENT_3D('',#511,#424,#425);
#336=DIRECTION('',(0.,0.,1.));
#337=DIRECTION('',(1.,0.,0.));
#338=DIRECTION('',(0.,0.,1.));
#339=DIRECTION('',(1.,0.,0.));
#340=DIRECTION('',(0.,0.,1.));
#341=DIRECTION('',(1.,0.,0.));
#342=DIRECTION('',(0.,0.,1.));
#343=DIRECTION('',(1.,0.,0.));
#344=DIRECTION('',(0.,0.,1.));
#345=DIRECTION('',(1.,0.,0.));
#346=DIRECTION('',(0.,0.,-1.));
#347=DIRECTION('',(-1.,0.,0.));
#348=DIRECTION('',(0.,0.,-1.));
#349=DIRECTION('',(-1.,0.,0.));
#350=DIRECTION('',(0.,0.,-1.));
#351=DIRECTION('',(1.,0.,0.));
#352=DIRECTION('',(0.,0.,-1.));
#353=DIRECTION('',(-1.,0.,0.));
#354=DIRECTION('',(0.,0.,-1.));
#355=DIRECTION('',(1.,0.,0.));
#356=DIRECTION('',(0.,0.,-1.));
#357=DIRECTION('',(-1.,0.,0.));
#358=DIRECTION('',(0.,0.,1.));
#359=DIRECTION('',(-1.,0.,0.));
#360=DIRECTION('',(0.,0.,-1.));
#361=DIRECTION('',(-1.,0.,0.));
#362=DIRECTION('',(0.,0.,-1.));
#363=DIRECTION('',(1.,0.,0.));
#364=DIRECTION('',(0.,0.,-1.));
#365=DIRECTION('',(1.,0.,6.96967350159962E-017));
#366=DIRECTION('',(0.,0.,-1.));
#367=DIRECTION('',(1.,0.,0.));
#368=DIRECTION('',(0.,0.,-1.));
#369=DIRECTION('',(1.,0.,0.));
#370=DIRECTION('',(0.,0.,-1.));
#371=DIRECTION('',(-1.,0.,0.));
#372=DIRECTION('',(0.,0.,1.));
#373=DIRECTION('',(-1.,0.,-5.82007670756692E-017));
#374=DIRECTION('',(0.,0.,-1.));
#375=DIRECTION('',(-1.,0.,0.));
#376=DIRECTION('',(0.,0.,-1.));
#377=DIRECTION('',(1.,0.,0.));
#378=DIRECTION('',(0.,0.,-1.));
#379=DIRECTION('',(-1.,0.,0.));
#380=DIRECTION('',(0.,0.,-1.));
#381=DIRECTION('',(1.,0.,0.));
#382=DIRECTION('',(0.,0.,-1.));
#383=DIRECTION('',(-1.,0.,0.));
#384=DIRECTION('',(0.,0.,-1.));
#385=DIRECTION('',(1.,0.,0.));
#386=DIRECTION('',(0.,0.,-1.));
#387=DIRECTION('',(-1.,0.,0.));
#388=DIRECTION('',(0.,0.,-1.));
#389=DIRECTION('',(1.,0.,1.38222947887595E-017));
#390=DIRECTION('',(0.,0.,-1.));
#391=DIRECTION('',(-1.,0.,0.));
#392=DIRECTION('',(0.,0.,1.));
#393=DIRECTION('',(-1.,0.,0.));
#394=DIRECTION('',(0.,0.,-1.));
#395=DIRECTION('',(-1.,0.,0.));
#396=DIRECTION('',(0.,0.,-1.));
#397=DIRECTION('',(1.,0.,0.));
#398=DIRECTION('',(0.,0.,-1.));
#399=DIRECTION('',(-1.,0.,0.));
#400=DIRECTION('',(0.,0.,-1.));
#401=DIRECTION('',(1.,0.,0.));
#402=DIRECTION('',(0.,0.,-1.));
#403=DIRECTION('',(-1.,0.,0.));
#404=DIRECTION('',(0.,0.,1.));
#405=DIRECTION('',(-1.,0.,-1.97746935314998E-017));
#406=DIRECTION('',(0.,0.,-1.));
#407=DIRECTION('',(-1.,0.,0.));
#408=DIRECTION('',(0.,0.,-1.));
#409=DIRECTION('',(1.,0.,0.));
#410=DIRECTION('',(0.,0.,-1.));
#411=DIRECTION('',(-1.,0.,0.));
#412=DIRECTION('',(0.,0.,1.));
#413=DIRECTION('',(-1.,0.,0.));
#414=DIRECTION('',(0.,0.,-1.));
#415=DIRECTION('',(-1.,0.,0.));
#416=DIRECTION('',(0.,0.,-1.));
#417=DIRECTION('',(1.,0.,0.));
#418=DIRECTION('',(0.,0.,1.));
#419=DIRECTION('',(-1.,0.,0.));
#420=DIRECTION('',(0.,0.,-1.));
#421=DIRECTION('',(-1.,0.,0.));
#422=DIRECTION('',(0.,0.,-1.));
#423=DIRECTION('',(1.,0.,0.));
#424=DIRECTION('',(0.,0.,1.));
#425=DIRECTION('',(-1.,0.,-3.16870757903295E-017));
#426=CARTESIAN_POINT('',(0.,0.,0.));
#427=CARTESIAN_POINT('',(0.,0.,0.));
#428=CARTESIAN_POINT('',(0.,0.,0.));
#429=CARTESIAN_POINT('',(0.,0.,-59.));
#430=CARTESIAN_POINT('',(0.,0.,0.));
#431=CARTESIAN_POINT('',(0.,0.,0.));
#432=CARTESIAN_POINT('',(0.,0.,0.));
#433=CARTESIAN_POINT('',(0.,0.,-59.));
#434=CARTESIAN_POINT('',(0.,-1.77635683940025E-015,-50.5));
#435=CARTESIAN_POINT('',(-25.,-1.77635683940025E-015,-50.5));
#436=CARTESIAN_POINT('',(0.,-1.77635683940025E-015,-69.));
#437=CARTESIAN_POINT('',(-25.,-1.77635683940025E-015,-69.));
#438=CARTESIAN_POINT('',(0.,-1.77635683940025E-015,24.9));
#439=CARTESIAN_POINT('',(0.,-1.77635683940025E-015,-49.5));
#440=CARTESIAN_POINT('',(-24.,-1.77635683940025E-015,-49.5));
#441=CARTESIAN_POINT('',(0.,-3.46944695195361E-015,-50.5));
#442=CARTESIAN_POINT('',(0.,-1.77635683940025E-015,-49.5));
#443=CARTESIAN_POINT('',(-20.,-1.77635683940025E-015,-49.5));
#444=CARTESIAN_POINT('',(0.,-24.,-49.5));
#445=CARTESIAN_POINT('',(0.,-1.77635683940025E-015,-45.086));
#446=CARTESIAN_POINT('',(-20.,-1.77635683940025E-015,-45.086));
#447=CARTESIAN_POINT('',(0.,-1.77635683940025E-015,24.9));
#448=CARTESIAN_POINT('',(4.9131314691493,-18.766779825011,-42.95));
#449=CARTESIAN_POINT('',(-4.9131314691493,-18.766779825011,-42.95));
#450=CARTESIAN_POINT('',(-9.79600869660365,-16.7442258539966,-42.95));
#451=CARTESIAN_POINT('',(-16.7442258539966,-9.79600869660364,-42.95));
#452=CARTESIAN_POINT('',(-18.766779825011,-4.9131314691493,-42.95));
#453=CARTESIAN_POINT('',(-18.766779825011,4.9131314691493,-42.95));
#454=CARTESIAN_POINT('',(-16.7442258539966,9.79600869660364,-42.95));
#455=CARTESIAN_POINT('',(-9.79600869660366,16.7442258539966,-42.95));
#456=CARTESIAN_POINT('',(-4.9131314691493,18.766779825011,-42.95));
#457=CARTESIAN_POINT('',(4.9131314691493,18.766779825011,-42.95));
#458=CARTESIAN_POINT('',(9.79600869660365,16.7442258539966,-42.95));
#459=CARTESIAN_POINT('',(16.7442258539966,9.79600869660365,-42.95));
#460=CARTESIAN_POINT('',(18.766779825011,4.91313146914931,-42.95));
#461=CARTESIAN_POINT('',(18.766779825011,-4.91313146914928,-42.95));
#462=CARTESIAN_POINT('',(16.7442258539966,-9.79600869660365,-42.95));
#463=CARTESIAN_POINT('',(9.79600869660365,-16.7442258539966,-42.95));
#464=CARTESIAN_POINT('',(4.9131314691493,-18.766779825011,-42.95));
#465=CARTESIAN_POINT('',(-4.9131314691493,-18.766779825011,-42.95));
#466=CARTESIAN_POINT('',(3.44586032452618E-015,-18.7583899125055,-42.95));
#467=CARTESIAN_POINT('',(0.,-1.77635683940025E-015,-45.086));
#468=CARTESIAN_POINT('',(0.,-1.77635683940025E-015,-38.9790635094612));
#469=CARTESIAN_POINT('',(-1.54051260339417E-018,-18.75,-38.9790635094612));
#470=CARTESIAN_POINT('',(0.,-1.77635683940025E-015,24.9));
#471=CARTESIAN_POINT('',(0.,-1.77635683940025E-015,-36.814));
#472=CARTESIAN_POINT('',(-20.,-1.77635683940025E-015,-36.814));
#473=CARTESIAN_POINT('',(0.,-1.77635683940025E-015,-38.95));
#474=CARTESIAN_POINT('',(0.,-1.77635683940025E-015,-25.95));
#475=CARTESIAN_POINT('',(-20.,-1.77635683940025E-015,-25.95));
#476=CARTESIAN_POINT('',(0.,-1.77635683940025E-015,24.9));
#477=CARTESIAN_POINT('',(0.,-1.77635683940025E-015,-25.95));
#478=CARTESIAN_POINT('',(-24.975,-1.77635683940025E-015,-25.95));
#479=CARTESIAN_POINT('',(0.,-20.,-25.95));
#480=CARTESIAN_POINT('',(0.,-1.77635683940025E-015,-21.3774990747593));
#481=CARTESIAN_POINT('',(-24.975,-1.77635683940025E-015,-21.3774990747593));
#482=CARTESIAN_POINT('',(0.,-1.77635683940025E-015,24.9));
#483=CARTESIAN_POINT('',(0.,-1.77635683940025E-015,-19.9125));
#484=CARTESIAN_POINT('',(-22.4375471694755,-1.77635683940025E-015,-19.9125));
#485=CARTESIAN_POINT('',(0.,-1.77635683940025E-015,-21.3774990747593));
#486=CARTESIAN_POINT('',(0.,-1.77635683940025E-015,-19.9125));
#487=CARTESIAN_POINT('',(-21.475,-1.77635683940025E-015,-19.9125));
#488=CARTESIAN_POINT('',(0.,-22.4375471694755,-19.9125));
#489=CARTESIAN_POINT('',(0.,-1.77635683940025E-015,-16.0875));
#490=CARTESIAN_POINT('',(-21.475,-1.77635683940025E-015,-16.0875));
#491=CARTESIAN_POINT('',(0.,-1.77635683940025E-015,24.9));
#492=CARTESIAN_POINT('',(0.,-1.77635683940025E-015,-16.0875));
#493=CARTESIAN_POINT('',(-22.4375471694755,-1.77635683940025E-015,-16.0875));
#494=CARTESIAN_POINT('',(0.,-21.475,-16.0875));
#495=CARTESIAN_POINT('',(0.,-1.77635683940025E-015,-14.6225009252407));
#496=CARTESIAN_POINT('',(-24.975,-1.77635683940025E-015,-14.6225009252407));
#497=CARTESIAN_POINT('',(0.,-1.77635683940025E-015,-16.0875));
#498=CARTESIAN_POINT('',(0.,-1.77635683940025E-015,0.));
#499=CARTESIAN_POINT('',(-24.975,-1.77635683940025E-015,0.));
#500=CARTESIAN_POINT('',(0.,-1.77635683940025E-015,24.9));
#501=CARTESIAN_POINT('',(0.,-1.77635683940025E-015,0.));
#502=CARTESIAN_POINT('',(-19.255001002004,-1.77635683940025E-015,0.));
#503=CARTESIAN_POINT('',(0.,-24.975,4.44089209850063E-016));
#504=CARTESIAN_POINT('',(0.,-1.77635683940025E-015,24.9));
#505=CARTESIAN_POINT('',(-18.0075060120241,-1.77635683940025E-015,24.9));
#506=CARTESIAN_POINT('',(0.,-1.77635683940025E-015,0.));
#507=CARTESIAN_POINT('',(0.,-13.021,24.9));
#508=CARTESIAN_POINT('',(0.,-1.77635683940025E-015,-72.));
#509=CARTESIAN_POINT('',(-19.8038475772934,-1.77635683940025E-015,-72.));
#510=CARTESIAN_POINT('',(0.,-13.1472232502674,-72.));
#511=CARTESIAN_POINT('',(0.,-1.77635683940025E-015,-72.));
#512=MECHANICAL_DESIGN_GEOMETRIC_PRESENTATION_REPRESENTATION('',(#266,#267,
#268,#269,#270,#271,#272,#273),#513);
#513=(
GEOMETRIC_REPRESENTATION_CONTEXT(3)
GLOBAL_UNCERTAINTY_ASSIGNED_CONTEXT((#514))
GLOBAL_UNIT_ASSIGNED_CONTEXT((#520,#516,#515))
REPRESENTATION_CONTEXT('1493021246808','TOP_LEVEL_ASSEMBLY_PART')
);
#514=UNCERTAINTY_MEASURE_WITH_UNIT(LENGTH_MEASURE(0.0508),#520,
'DISTANCE_ACCURACY_VALUE','Maximum Tolerance applied to model');
#515=(
NAMED_UNIT(*)
SI_UNIT($,.STERADIAN.)
SOLID_ANGLE_UNIT()
);
#516=(
CONVERSION_BASED_UNIT('DEGREE',#518)
NAMED_UNIT(#517)
PLANE_ANGLE_UNIT()
);
#517=DIMENSIONAL_EXPONENTS(0.,0.,0.,0.,0.,0.,0.);
#518=PLANE_ANGLE_MEASURE_WITH_UNIT(PLANE_ANGLE_MEASURE(0.0174532925),#519);
#519=(
NAMED_UNIT(*)
PLANE_ANGLE_UNIT()
SI_UNIT($,.RADIAN.)
);
#520=(
LENGTH_UNIT()
NAMED_UNIT(*)
SI_UNIT(.MILLI.,.METRE.)
);
ENDSEC;
END-ISO-10303-21;
