ISO-10303-21;
HEADER;
/* Generated by software containing ST-Developer
 * from STEP Tools, Inc. (www.steptools.com) 
 */
/* OPTION: using custom schema-name function */

FILE_DESCRIPTION(
/* description */ (''),
/* implementation_level */ '2;1');

FILE_NAME(
/* name */ '1493021217915.stp',
/* time_stamp */ '2017-04-24T10:07:01+02:00',
/* author */ (''),
/* organization */ ('SMS'),
/* preprocessor_version */ 'ST-DEVELOPER v15',
/* originating_system */ 'SIEMENS PLM Software NX 8.5',
/* authorisation */ '');

FILE_SCHEMA (('AUTOMOTIVE_DESIGN { 1 0 10303 214 3 1 1 1 }'));
ENDSEC;

DATA;
#10=CONSTRUCTIVE_GEOMETRY_REPRESENTATION_RELATIONSHIP(
'supplemental geometry','',#26,#11);
#11=CONSTRUCTIVE_GEOMETRY_REPRESENTATION('supplemental geometry',(#314,
#315,#316,#317),#539);
#12=GEOMETRICALLY_BOUNDED_WIREFRAME_SHAPE_REPRESENTATION(
'392.41014-10050130A-636200719579073936-1-None',(#27),#539);
#13=SHAPE_REPRESENTATION_RELATIONSHIP('None',
'relationship between 392.41014-10050130A-636200719579073936-1-None an
d 392.41014-10050130A-636200719579073936-1-None',#26,#15);
#14=SHAPE_REPRESENTATION_RELATIONSHIP('None',
'relationship between 392.41014-10050130A-636200719579073936-1-None an
d 392.41014-10050130A-636200719579073936-1-None',#26,#12);
#15=ADVANCED_BREP_SHAPE_REPRESENTATION(
'392.41014-10050130A-636200719579073936-1-None',(#33),#539);
#16=SHAPE_DEFINITION_REPRESENTATION(#17,#26);
#17=PRODUCT_DEFINITION_SHAPE('','',#18);
#18=PRODUCT_DEFINITION(' ','',#20,#19);
#19=PRODUCT_DEFINITION_CONTEXT('part definition',#25,'design');
#20=PRODUCT_DEFINITION_FORMATION_WITH_SPECIFIED_SOURCE(' ',' ',#22,
 .NOT_KNOWN.);
#21=PRODUCT_RELATED_PRODUCT_CATEGORY('part','',(#22));
#22=PRODUCT('392.41014-10050130A-636200719579073936-1',
'392.41014-10050130A-636200719579073936-1',' ',(#23));
#23=PRODUCT_CONTEXT(' ',#25,'mechanical');
#24=APPLICATION_PROTOCOL_DEFINITION('international standard',
'automotive_design',2010,#25);
#25=APPLICATION_CONTEXT(
'core data for automotive mechanical design processes');
#26=SHAPE_REPRESENTATION(
'392.41014-10050130A-636200719579073936-1-None',(#313),#539);
#27=GEOMETRIC_CURVE_SET('None',(#464,#465,#466));
#28=SURFACE_STYLE_USAGE(.BOTH.,#29);
#29=SURFACE_SIDE_STYLE('',(#30));
#30=SURFACE_STYLE_FILL_AREA(#31);
#31=FILL_AREA_STYLE('',(#32));
#32=FILL_AREA_STYLE_COLOUR('',#312);
#33=MANIFOLD_SOLID_BREP('NOCUT',#34);
#34=CLOSED_SHELL('',(#54,#55,#56,#57,#58,#59,#60,#61,#62,#63,#64,#65,#66,
#67,#68,#69,#70,#71,#72,#73,#74,#75,#76));
#35=FACE_OUTER_BOUND('',#153,.T.);
#36=FACE_OUTER_BOUND('',#154,.T.);
#37=TOROIDAL_SURFACE('',#326,40.,2.);
#38=TOROIDAL_SURFACE('',#342,38.,1.);
#39=PLANE('',#324);
#40=PLANE('',#334);
#41=PLANE('',#340);
#42=PLANE('',#347);
#43=PLANE('',#349);
#44=PLANE('',#353);
#45=PLANE('',#359);
#46=PLANE('',#362);
#47=CYLINDRICAL_SURFACE('',#322,49.965);
#48=CYLINDRICAL_SURFACE('',#328,38.);
#49=CYLINDRICAL_SURFACE('',#332,30.5);
#50=CYLINDRICAL_SURFACE('',#338,32.);
#51=CYLINDRICAL_SURFACE('',#344,39.);
#52=CYLINDRICAL_SURFACE('',#355,49.965);
#53=CYLINDRICAL_SURFACE('',#361,45.975);
#54=ADVANCED_FACE('',(#83,#84),#77,.T.);
#55=ADVANCED_FACE('',(#85,#86),#47,.T.);
#56=ADVANCED_FACE('',(#87,#88),#39,.T.);
#57=ADVANCED_FACE('',(#89,#90),#37,.F.);
#58=ADVANCED_FACE('',(#91,#92),#48,.T.);
#59=ADVANCED_FACE('',(#93,#94),#78,.T.);
#60=ADVANCED_FACE('',(#95,#96),#49,.T.);
#61=ADVANCED_FACE('',(#97,#98),#40,.T.);
#62=ADVANCED_FACE('',(#99,#100),#79,.T.);
#63=ADVANCED_FACE('',(#101,#102),#50,.T.);
#64=ADVANCED_FACE('',(#103,#104),#41,.T.);
#65=ADVANCED_FACE('',(#105,#106),#38,.T.);
#66=ADVANCED_FACE('',(#107,#108),#51,.T.);
#67=ADVANCED_FACE('',(#109,#110),#80,.T.);
#68=ADVANCED_FACE('',(#35),#42,.T.);
#69=ADVANCED_FACE('',(#36),#43,.T.);
#70=ADVANCED_FACE('',(#111,#112),#81,.T.);
#71=ADVANCED_FACE('',(#113,#114),#44,.T.);
#72=ADVANCED_FACE('',(#115,#116),#52,.T.);
#73=ADVANCED_FACE('',(#117,#118),#82,.T.);
#74=ADVANCED_FACE('',(#119,#120),#45,.T.);
#75=ADVANCED_FACE('',(#121,#122),#53,.T.);
#76=ADVANCED_FACE('',(#123,#124),#46,.T.);
#77=CONICAL_SURFACE('',#320,47.6625471694755,59.9999999999988);
#78=CONICAL_SURFACE('',#330,38.,30.0000000000001);
#79=CONICAL_SURFACE('',#336,30.75,29.9999999999987);
#80=CONICAL_SURFACE('',#346,39.,60.0000000000001);
#81=CONICAL_SURFACE('',#351,35.5075020040081,2.86813194068656);
#82=CONICAL_SURFACE('',#357,49.965,60.0000000000025);
#83=FACE_BOUND('',#125,.T.);
#84=FACE_BOUND('',#126,.T.);
#85=FACE_BOUND('',#127,.T.);
#86=FACE_BOUND('',#128,.T.);
#87=FACE_BOUND('',#129,.T.);
#88=FACE_BOUND('',#130,.T.);
#89=FACE_BOUND('',#131,.T.);
#90=FACE_BOUND('',#132,.T.);
#91=FACE_BOUND('',#133,.T.);
#92=FACE_BOUND('',#134,.T.);
#93=FACE_BOUND('',#135,.T.);
#94=FACE_BOUND('',#136,.T.);
#95=FACE_BOUND('',#137,.T.);
#96=FACE_BOUND('',#138,.T.);
#97=FACE_BOUND('',#139,.T.);
#98=FACE_BOUND('',#140,.T.);
#99=FACE_BOUND('',#141,.T.);
#100=FACE_BOUND('',#142,.T.);
#101=FACE_BOUND('',#143,.T.);
#102=FACE_BOUND('',#144,.T.);
#103=FACE_BOUND('',#145,.T.);
#104=FACE_BOUND('',#146,.T.);
#105=FACE_BOUND('',#147,.T.);
#106=FACE_BOUND('',#148,.T.);
#107=FACE_BOUND('',#149,.T.);
#108=FACE_BOUND('',#150,.T.);
#109=FACE_BOUND('',#151,.T.);
#110=FACE_BOUND('',#152,.T.);
#111=FACE_BOUND('',#155,.T.);
#112=FACE_BOUND('',#156,.T.);
#113=FACE_BOUND('',#157,.T.);
#114=FACE_BOUND('',#158,.T.);
#115=FACE_BOUND('',#159,.T.);
#116=FACE_BOUND('',#160,.T.);
#117=FACE_BOUND('',#161,.T.);
#118=FACE_BOUND('',#162,.T.);
#119=FACE_BOUND('',#163,.T.);
#120=FACE_BOUND('',#164,.T.);
#121=FACE_BOUND('',#165,.T.);
#122=FACE_BOUND('',#166,.T.);
#123=FACE_BOUND('',#167,.T.);
#124=FACE_BOUND('',#168,.T.);
#125=EDGE_LOOP('',(#169));
#126=EDGE_LOOP('',(#170));
#127=EDGE_LOOP('',(#171));
#128=EDGE_LOOP('',(#172));
#129=EDGE_LOOP('',(#173));
#130=EDGE_LOOP('',(#174));
#131=EDGE_LOOP('',(#175));
#132=EDGE_LOOP('',(#176));
#133=EDGE_LOOP('',(#177));
#134=EDGE_LOOP('',(#178));
#135=EDGE_LOOP('',(#179));
#136=EDGE_LOOP('',(#180));
#137=EDGE_LOOP('',(#181));
#138=EDGE_LOOP('',(#182));
#139=EDGE_LOOP('',(#183));
#140=EDGE_LOOP('',(#184));
#141=EDGE_LOOP('',(#185));
#142=EDGE_LOOP('',(#186));
#143=EDGE_LOOP('',(#187));
#144=EDGE_LOOP('',(#188));
#145=EDGE_LOOP('',(#189));
#146=EDGE_LOOP('',(#190));
#147=EDGE_LOOP('',(#191));
#148=EDGE_LOOP('',(#192));
#149=EDGE_LOOP('',(#193));
#150=EDGE_LOOP('',(#194));
#151=EDGE_LOOP('',(#195));
#152=EDGE_LOOP('',(#196));
#153=EDGE_LOOP('',(#197));
#154=EDGE_LOOP('',(#198));
#155=EDGE_LOOP('',(#199));
#156=EDGE_LOOP('',(#200));
#157=EDGE_LOOP('',(#201));
#158=EDGE_LOOP('',(#202));
#159=EDGE_LOOP('',(#203));
#160=EDGE_LOOP('',(#204));
#161=EDGE_LOOP('',(#205));
#162=EDGE_LOOP('',(#206));
#163=EDGE_LOOP('',(#207));
#164=EDGE_LOOP('',(#208));
#165=EDGE_LOOP('',(#209));
#166=EDGE_LOOP('',(#210));
#167=EDGE_LOOP('',(#211));
#168=EDGE_LOOP('',(#212));
#169=ORIENTED_EDGE('',*,*,#235,.T.);
#170=ORIENTED_EDGE('',*,*,#236,.F.);
#171=ORIENTED_EDGE('',*,*,#237,.T.);
#172=ORIENTED_EDGE('',*,*,#235,.F.);
#173=ORIENTED_EDGE('',*,*,#238,.T.);
#174=ORIENTED_EDGE('',*,*,#237,.F.);
#175=ORIENTED_EDGE('',*,*,#239,.T.);
#176=ORIENTED_EDGE('',*,*,#238,.F.);
#177=ORIENTED_EDGE('',*,*,#240,.T.);
#178=ORIENTED_EDGE('',*,*,#239,.F.);
#179=ORIENTED_EDGE('',*,*,#241,.T.);
#180=ORIENTED_EDGE('',*,*,#240,.F.);
#181=ORIENTED_EDGE('',*,*,#242,.T.);
#182=ORIENTED_EDGE('',*,*,#241,.F.);
#183=ORIENTED_EDGE('',*,*,#243,.T.);
#184=ORIENTED_EDGE('',*,*,#242,.F.);
#185=ORIENTED_EDGE('',*,*,#244,.T.);
#186=ORIENTED_EDGE('',*,*,#243,.F.);
#187=ORIENTED_EDGE('',*,*,#245,.T.);
#188=ORIENTED_EDGE('',*,*,#244,.F.);
#189=ORIENTED_EDGE('',*,*,#246,.T.);
#190=ORIENTED_EDGE('',*,*,#245,.F.);
#191=ORIENTED_EDGE('',*,*,#247,.T.);
#192=ORIENTED_EDGE('',*,*,#246,.F.);
#193=ORIENTED_EDGE('',*,*,#248,.T.);
#194=ORIENTED_EDGE('',*,*,#247,.F.);
#195=ORIENTED_EDGE('',*,*,#249,.T.);
#196=ORIENTED_EDGE('',*,*,#248,.F.);
#197=ORIENTED_EDGE('',*,*,#249,.F.);
#198=ORIENTED_EDGE('',*,*,#250,.T.);
#199=ORIENTED_EDGE('',*,*,#251,.T.);
#200=ORIENTED_EDGE('',*,*,#250,.F.);
#201=ORIENTED_EDGE('',*,*,#252,.T.);
#202=ORIENTED_EDGE('',*,*,#251,.F.);
#203=ORIENTED_EDGE('',*,*,#253,.T.);
#204=ORIENTED_EDGE('',*,*,#252,.F.);
#205=ORIENTED_EDGE('',*,*,#254,.T.);
#206=ORIENTED_EDGE('',*,*,#253,.F.);
#207=ORIENTED_EDGE('',*,*,#255,.T.);
#208=ORIENTED_EDGE('',*,*,#254,.F.);
#209=ORIENTED_EDGE('',*,*,#256,.T.);
#210=ORIENTED_EDGE('',*,*,#255,.F.);
#211=ORIENTED_EDGE('',*,*,#236,.T.);
#212=ORIENTED_EDGE('',*,*,#256,.F.);
#213=VERTEX_POINT('',#472);
#214=VERTEX_POINT('',#474);
#215=VERTEX_POINT('',#477);
#216=VERTEX_POINT('',#480);
#217=VERTEX_POINT('',#483);
#218=VERTEX_POINT('',#486);
#219=VERTEX_POINT('',#489);
#220=VERTEX_POINT('',#492);
#221=VERTEX_POINT('',#495);
#222=VERTEX_POINT('',#498);
#223=VERTEX_POINT('',#501);
#224=VERTEX_POINT('',#504);
#225=VERTEX_POINT('',#507);
#226=VERTEX_POINT('',#510);
#227=VERTEX_POINT('',#513);
#228=VERTEX_POINT('',#517);
#229=VERTEX_POINT('',#520);
#230=VERTEX_POINT('',#523);
#231=VERTEX_POINT('',#526);
#232=VERTEX_POINT('',#529);
#233=VERTEX_POINT('',#532);
#234=VERTEX_POINT('',#535);
#235=EDGE_CURVE('',#213,#213,#257,.T.);
#236=EDGE_CURVE('',#214,#214,#258,.T.);
#237=EDGE_CURVE('',#215,#215,#259,.T.);
#238=EDGE_CURVE('',#216,#216,#260,.T.);
#239=EDGE_CURVE('',#217,#217,#261,.T.);
#240=EDGE_CURVE('',#218,#218,#262,.T.);
#241=EDGE_CURVE('',#219,#219,#263,.T.);
#242=EDGE_CURVE('',#220,#220,#264,.T.);
#243=EDGE_CURVE('',#221,#221,#265,.T.);
#244=EDGE_CURVE('',#222,#222,#266,.T.);
#245=EDGE_CURVE('',#223,#223,#267,.T.);
#246=EDGE_CURVE('',#224,#224,#268,.T.);
#247=EDGE_CURVE('',#225,#225,#269,.T.);
#248=EDGE_CURVE('',#226,#226,#270,.T.);
#249=EDGE_CURVE('',#227,#227,#271,.T.);
#250=EDGE_CURVE('',#228,#228,#272,.T.);
#251=EDGE_CURVE('',#229,#229,#273,.T.);
#252=EDGE_CURVE('',#230,#230,#274,.T.);
#253=EDGE_CURVE('',#231,#231,#275,.T.);
#254=EDGE_CURVE('',#232,#232,#276,.T.);
#255=EDGE_CURVE('',#233,#233,#277,.T.);
#256=EDGE_CURVE('',#234,#234,#278,.T.);
#257=CIRCLE('',#318,49.965);
#258=CIRCLE('',#319,47.6625471694755);
#259=CIRCLE('',#321,49.965);
#260=CIRCLE('',#323,40.);
#261=CIRCLE('',#325,38.);
#262=CIRCLE('',#327,38.);
#263=CIRCLE('',#329,30.5);
#264=CIRCLE('',#331,30.5);
#265=CIRCLE('',#333,30.75);
#266=CIRCLE('',#335,32.);
#267=CIRCLE('',#337,32.);
#268=CIRCLE('',#339,38.);
#269=CIRCLE('',#341,39.);
#270=CIRCLE('',#343,39.);
#271=CIRCLE('',#345,32.0717967697245);
#272=CIRCLE('',#348,35.5075020040081);
#273=CIRCLE('',#350,38.007502004008);
#274=CIRCLE('',#352,49.965);
#275=CIRCLE('',#354,49.965);
#276=CIRCLE('',#356,47.6625471694755);
#277=CIRCLE('',#358,45.975);
#278=CIRCLE('',#360,45.975);
#279=CURVE_STYLE('',#283,POSITIVE_LENGTH_MEASURE(0.13),#310);
#280=CURVE_STYLE('',#284,POSITIVE_LENGTH_MEASURE(0.18),#310);
#281=CURVE_STYLE('',#285,POSITIVE_LENGTH_MEASURE(0.18),#310);
#282=CURVE_STYLE('',#286,POSITIVE_LENGTH_MEASURE(0.18),#311);
#283=DRAUGHTING_PRE_DEFINED_CURVE_FONT('continuous');
#284=DRAUGHTING_PRE_DEFINED_CURVE_FONT('continuous');
#285=DRAUGHTING_PRE_DEFINED_CURVE_FONT('continuous');
#286=DRAUGHTING_PRE_DEFINED_CURVE_FONT('continuous');
#287=PRESENTATION_LAYER_ASSIGNMENT('1','Layer 1',(#464,#465,#466,#314,#315,
#316,#317,#33));
#288=STYLED_ITEM('',(#296),#464);
#289=STYLED_ITEM('',(#297),#465);
#290=STYLED_ITEM('',(#298),#466);
#291=STYLED_ITEM('',(#299),#314);
#292=STYLED_ITEM('',(#300),#315);
#293=STYLED_ITEM('',(#301),#316);
#294=STYLED_ITEM('',(#302),#317);
#295=STYLED_ITEM('',(#303),#33);
#296=PRESENTATION_STYLE_ASSIGNMENT((#304));
#297=PRESENTATION_STYLE_ASSIGNMENT((#305));
#298=PRESENTATION_STYLE_ASSIGNMENT((#306));
#299=PRESENTATION_STYLE_ASSIGNMENT((#279));
#300=PRESENTATION_STYLE_ASSIGNMENT((#280));
#301=PRESENTATION_STYLE_ASSIGNMENT((#281));
#302=PRESENTATION_STYLE_ASSIGNMENT((#282));
#303=PRESENTATION_STYLE_ASSIGNMENT((#28));
#304=POINT_STYLE('',#307,POSITIVE_LENGTH_MEASURE(3.),#310);
#305=POINT_STYLE('',#308,POSITIVE_LENGTH_MEASURE(3.),#310);
#306=POINT_STYLE('',#309,POSITIVE_LENGTH_MEASURE(3.),#311);
#307=PRE_DEFINED_POINT_MARKER_SYMBOL('plus');
#308=PRE_DEFINED_POINT_MARKER_SYMBOL('plus');
#309=PRE_DEFINED_POINT_MARKER_SYMBOL('plus');
#310=COLOUR_RGB('Strong Stone',0.576470588235294,0.54508278019379,0.392156862745098);
#311=COLOUR_RGB('Medium Maroon',0.6,0.4,0.4);
#312=COLOUR_RGB('TLS_NOCUT',0.499992370489052,0.499992370489052,0.499992370489052);
#313=AXIS2_PLACEMENT_3D('',#463,#363,#364);
#314=AXIS2_PLACEMENT_3D('',#467,#365,#366);
#315=AXIS2_PLACEMENT_3D('PCS',#468,#367,#368);
#316=AXIS2_PLACEMENT_3D('MCS',#469,#369,#370);
#317=AXIS2_PLACEMENT_3D('CSW',#470,#371,#372);
#318=AXIS2_PLACEMENT_3D('',#471,#373,#374);
#319=AXIS2_PLACEMENT_3D('',#473,#375,#376);
#320=AXIS2_PLACEMENT_3D('',#475,#377,#378);
#321=AXIS2_PLACEMENT_3D('',#476,#379,#380);
#322=AXIS2_PLACEMENT_3D('',#478,#381,#382);
#323=AXIS2_PLACEMENT_3D('',#479,#383,#384);
#324=AXIS2_PLACEMENT_3D('',#481,#385,#386);
#325=AXIS2_PLACEMENT_3D('',#482,#387,#388);
#326=AXIS2_PLACEMENT_3D('',#484,#389,#390);
#327=AXIS2_PLACEMENT_3D('',#485,#391,#392);
#328=AXIS2_PLACEMENT_3D('',#487,#393,#394);
#329=AXIS2_PLACEMENT_3D('',#488,#395,#396);
#330=AXIS2_PLACEMENT_3D('',#490,#397,#398);
#331=AXIS2_PLACEMENT_3D('',#491,#399,#400);
#332=AXIS2_PLACEMENT_3D('',#493,#401,#402);
#333=AXIS2_PLACEMENT_3D('',#494,#403,#404);
#334=AXIS2_PLACEMENT_3D('',#496,#405,#406);
#335=AXIS2_PLACEMENT_3D('',#497,#407,#408);
#336=AXIS2_PLACEMENT_3D('',#499,#409,#410);
#337=AXIS2_PLACEMENT_3D('',#500,#411,#412);
#338=AXIS2_PLACEMENT_3D('',#502,#413,#414);
#339=AXIS2_PLACEMENT_3D('',#503,#415,#416);
#340=AXIS2_PLACEMENT_3D('',#505,#417,#418);
#341=AXIS2_PLACEMENT_3D('',#506,#419,#420);
#342=AXIS2_PLACEMENT_3D('',#508,#421,#422);
#343=AXIS2_PLACEMENT_3D('',#509,#423,#424);
#344=AXIS2_PLACEMENT_3D('',#511,#425,#426);
#345=AXIS2_PLACEMENT_3D('',#512,#427,#428);
#346=AXIS2_PLACEMENT_3D('',#514,#429,#430);
#347=AXIS2_PLACEMENT_3D('',#515,#431,#432);
#348=AXIS2_PLACEMENT_3D('',#516,#433,#434);
#349=AXIS2_PLACEMENT_3D('',#518,#435,#436);
#350=AXIS2_PLACEMENT_3D('',#519,#437,#438);
#351=AXIS2_PLACEMENT_3D('',#521,#439,#440);
#352=AXIS2_PLACEMENT_3D('',#522,#441,#442);
#353=AXIS2_PLACEMENT_3D('',#524,#443,#444);
#354=AXIS2_PLACEMENT_3D('',#525,#445,#446);
#355=AXIS2_PLACEMENT_3D('',#527,#447,#448);
#356=AXIS2_PLACEMENT_3D('',#528,#449,#450);
#357=AXIS2_PLACEMENT_3D('',#530,#451,#452);
#358=AXIS2_PLACEMENT_3D('',#531,#453,#454);
#359=AXIS2_PLACEMENT_3D('',#533,#455,#456);
#360=AXIS2_PLACEMENT_3D('',#534,#457,#458);
#361=AXIS2_PLACEMENT_3D('',#536,#459,#460);
#362=AXIS2_PLACEMENT_3D('',#537,#461,#462);
#363=DIRECTION('',(0.,0.,1.));
#364=DIRECTION('',(1.,0.,0.));
#365=DIRECTION('',(0.,0.,1.));
#366=DIRECTION('',(1.,0.,0.));
#367=DIRECTION('',(0.,0.,1.));
#368=DIRECTION('',(1.,0.,0.));
#369=DIRECTION('',(0.,0.,1.));
#370=DIRECTION('',(1.,0.,0.));
#371=DIRECTION('',(0.,0.,1.));
#372=DIRECTION('',(1.,0.,0.));
#373=DIRECTION('',(0.,0.,1.));
#374=DIRECTION('',(1.,0.,0.));
#375=DIRECTION('',(0.,0.,1.));
#376=DIRECTION('',(1.,0.,0.));
#377=DIRECTION('',(0.,0.,-1.));
#378=DIRECTION('',(1.,0.,0.));
#379=DIRECTION('',(0.,0.,1.));
#380=DIRECTION('',(1.,0.,0.));
#381=DIRECTION('',(0.,0.,1.));
#382=DIRECTION('',(-1.,0.,0.));
#383=DIRECTION('',(0.,0.,1.));
#384=DIRECTION('',(1.,0.,0.));
#385=DIRECTION('',(0.,0.,-1.));
#386=DIRECTION('',(1.,0.,0.));
#387=DIRECTION('',(0.,0.,1.));
#388=DIRECTION('',(1.,0.,0.));
#389=DIRECTION('',(0.,0.,1.));
#390=DIRECTION('',(-1.,0.,0.));
#391=DIRECTION('',(0.,0.,1.));
#392=DIRECTION('',(1.,0.,0.));
#393=DIRECTION('',(0.,0.,1.));
#394=DIRECTION('',(-1.,0.,0.));
#395=DIRECTION('',(0.,0.,1.));
#396=DIRECTION('',(1.,0.,0.));
#397=DIRECTION('',(0.,0.,1.));
#398=DIRECTION('',(-1.,0.,9.02106556390428E-017));
#399=DIRECTION('',(0.,0.,1.));
#400=DIRECTION('',(1.,0.,0.));
#401=DIRECTION('',(0.,0.,1.));
#402=DIRECTION('',(-1.,0.,0.));
#403=DIRECTION('',(0.,0.,1.));
#404=DIRECTION('',(1.,0.,0.));
#405=DIRECTION('',(0.,0.,1.));
#406=DIRECTION('',(-1.,0.,0.));
#407=DIRECTION('',(0.,0.,1.));
#408=DIRECTION('',(1.,0.,0.));
#409=DIRECTION('',(0.,0.,-1.));
#410=DIRECTION('',(1.,0.,-1.3692927147994E-016));
#411=DIRECTION('',(0.,0.,1.));
#412=DIRECTION('',(1.,0.,0.));
#413=DIRECTION('',(0.,0.,1.));
#414=DIRECTION('',(-1.,0.,0.));
#415=DIRECTION('',(0.,0.,1.));
#416=DIRECTION('',(1.,0.,0.));
#417=DIRECTION('',(0.,0.,1.));
#418=DIRECTION('',(-1.,0.,0.));
#419=DIRECTION('',(0.,0.,1.));
#420=DIRECTION('',(1.,0.,0.));
#421=DIRECTION('',(0.,0.,1.));
#422=DIRECTION('',(-1.,0.,0.));
#423=DIRECTION('',(0.,0.,1.));
#424=DIRECTION('',(1.,0.,0.));
#425=DIRECTION('',(0.,0.,1.));
#426=DIRECTION('',(-1.,0.,0.));
#427=DIRECTION('',(0.,0.,1.));
#428=DIRECTION('',(1.,0.,0.));
#429=DIRECTION('',(0.,0.,1.));
#430=DIRECTION('',(-1.,0.,0.));
#431=DIRECTION('',(0.,0.,-1.));
#432=DIRECTION('',(1.,0.,0.));
#433=DIRECTION('',(0.,0.,1.));
#434=DIRECTION('',(1.,0.,0.));
#435=DIRECTION('',(0.,0.,1.));
#436=DIRECTION('',(-1.,0.,0.));
#437=DIRECTION('',(0.,0.,1.));
#438=DIRECTION('',(1.,0.,0.));
#439=DIRECTION('',(0.,0.,-1.));
#440=DIRECTION('',(1.,0.,6.4843641018148E-016));
#441=DIRECTION('',(0.,0.,1.));
#442=DIRECTION('',(1.,0.,0.));
#443=DIRECTION('',(0.,0.,1.));
#444=DIRECTION('',(-1.,0.,0.));
#445=DIRECTION('',(0.,0.,1.));
#446=DIRECTION('',(1.,0.,0.));
#447=DIRECTION('',(0.,0.,1.));
#448=DIRECTION('',(-1.,0.,0.));
#449=DIRECTION('',(0.,0.,1.));
#450=DIRECTION('',(1.,0.,0.));
#451=DIRECTION('',(0.,0.,1.));
#452=DIRECTION('',(-1.,0.,-2.33630718911735E-017));
#453=DIRECTION('',(0.,0.,1.));
#454=DIRECTION('',(1.,0.,0.));
#455=DIRECTION('',(0.,0.,-1.));
#456=DIRECTION('',(1.,0.,0.));
#457=DIRECTION('',(0.,0.,1.));
#458=DIRECTION('',(1.,0.,0.));
#459=DIRECTION('',(0.,0.,1.));
#460=DIRECTION('',(-1.,0.,0.));
#461=DIRECTION('',(0.,0.,1.));
#462=DIRECTION('',(-1.,0.,0.));
#463=CARTESIAN_POINT('',(0.,0.,0.));
#464=CARTESIAN_POINT('',(0.,0.,0.));
#465=CARTESIAN_POINT('',(0.,0.,0.));
#466=CARTESIAN_POINT('',(0.,0.,-109.));
#467=CARTESIAN_POINT('',(0.,0.,0.));
#468=CARTESIAN_POINT('',(0.,0.,0.));
#469=CARTESIAN_POINT('',(0.,0.,0.));
#470=CARTESIAN_POINT('',(0.,0.,-109.));
#471=CARTESIAN_POINT('',(0.,0.,-23.2418217614998));
#472=CARTESIAN_POINT('',(49.965,0.,-23.2418217614998));
#473=CARTESIAN_POINT('',(0.,0.,-21.9125));
#474=CARTESIAN_POINT('',(47.6625471694755,0.,-21.9125));
#475=CARTESIAN_POINT('',(0.,0.,-21.9125));
#476=CARTESIAN_POINT('',(0.,0.,-28.95));
#477=CARTESIAN_POINT('',(49.965,0.,-28.95));
#478=CARTESIAN_POINT('',(0.,0.,-129.95));
#479=CARTESIAN_POINT('',(0.,0.,-28.95));
#480=CARTESIAN_POINT('',(40.,0.,-28.95));
#481=CARTESIAN_POINT('',(-49.965,0.,-28.95));
#482=CARTESIAN_POINT('',(0.,0.,-30.95));
#483=CARTESIAN_POINT('',(38.,0.,-30.95));
#484=CARTESIAN_POINT('',(0.,0.,-30.95));
#485=CARTESIAN_POINT('',(0.,0.,-69.9596189432335));
#486=CARTESIAN_POINT('',(38.,0.,-69.9596189432335));
#487=CARTESIAN_POINT('',(0.,0.,-129.95));
#488=CARTESIAN_POINT('',(0.,0.,-82.95));
#489=CARTESIAN_POINT('',(30.5,0.,-82.95));
#490=CARTESIAN_POINT('',(0.,0.,-69.9596189432335));
#491=CARTESIAN_POINT('',(0.,0.,-86.95));
#492=CARTESIAN_POINT('',(30.5,0.,-86.95));
#493=CARTESIAN_POINT('',(0.,0.,-129.95));
#494=CARTESIAN_POINT('',(0.,0.,-86.95));
#495=CARTESIAN_POINT('',(30.75,0.,-86.95));
#496=CARTESIAN_POINT('',(-30.5,0.,-86.95));
#497=CARTESIAN_POINT('',(0.,0.,-89.1150635094612));
#498=CARTESIAN_POINT('',(32.,0.,-89.1150635094612));
#499=CARTESIAN_POINT('',(0.,0.,-86.95));
#500=CARTESIAN_POINT('',(0.,0.,-94.65));
#501=CARTESIAN_POINT('',(32.,0.,-94.65));
#502=CARTESIAN_POINT('',(0.,0.,-129.95));
#503=CARTESIAN_POINT('',(0.,0.,-94.65));
#504=CARTESIAN_POINT('',(38.,0.,-94.65));
#505=CARTESIAN_POINT('',(-32.,0.,-94.65));
#506=CARTESIAN_POINT('',(0.,0.,-95.65));
#507=CARTESIAN_POINT('',(39.,0.,-95.65));
#508=CARTESIAN_POINT('',(0.,0.,-95.65));
#509=CARTESIAN_POINT('',(0.,0.,-125.95));
#510=CARTESIAN_POINT('',(39.,0.,-125.95));
#511=CARTESIAN_POINT('',(0.,0.,-129.95));
#512=CARTESIAN_POINT('',(0.,0.,-129.95));
#513=CARTESIAN_POINT('',(32.0717967697245,0.,-129.95));
#514=CARTESIAN_POINT('',(0.,0.,-125.95));
#515=CARTESIAN_POINT('',(-21.65,0.,-129.95));
#516=CARTESIAN_POINT('',(0.,0.,49.9));
#517=CARTESIAN_POINT('',(35.5075020040081,0.,49.9));
#518=CARTESIAN_POINT('',(-26.53,0.,49.9));
#519=CARTESIAN_POINT('',(0.,0.,0.));
#520=CARTESIAN_POINT('',(38.007502004008,0.,0.));
#521=CARTESIAN_POINT('',(0.,0.,49.9));
#522=CARTESIAN_POINT('',(0.,0.,0.));
#523=CARTESIAN_POINT('',(49.965,0.,0.));
#524=CARTESIAN_POINT('',(-38.007502004008,0.,4.44089209850063E-016));
#525=CARTESIAN_POINT('',(0.,0.,-16.7581782385003));
#526=CARTESIAN_POINT('',(49.965,0.,-16.7581782385003));
#527=CARTESIAN_POINT('',(0.,0.,-129.95));
#528=CARTESIAN_POINT('',(0.,0.,-18.0874999999999));
#529=CARTESIAN_POINT('',(47.6625471694755,0.,-18.0874999999999));
#530=CARTESIAN_POINT('',(0.,0.,-16.7581782385003));
#531=CARTESIAN_POINT('',(0.,0.,-18.0875));
#532=CARTESIAN_POINT('',(45.975,0.,-18.0875));
#533=CARTESIAN_POINT('',(-47.6625471694755,0.,-18.0875));
#534=CARTESIAN_POINT('',(0.,0.,-21.9125));
#535=CARTESIAN_POINT('',(45.975,0.,-21.9125));
#536=CARTESIAN_POINT('',(0.,0.,-129.95));
#537=CARTESIAN_POINT('',(-45.975,0.,-21.9125));
#538=MECHANICAL_DESIGN_GEOMETRIC_PRESENTATION_REPRESENTATION('',(#288,#289,
#290,#291,#292,#293,#294,#295),#539);
#539=(
GEOMETRIC_REPRESENTATION_CONTEXT(3)
GLOBAL_UNCERTAINTY_ASSIGNED_CONTEXT((#540))
GLOBAL_UNIT_ASSIGNED_CONTEXT((#546,#542,#541))
REPRESENTATION_CONTEXT('1493021217915','TOP_LEVEL_ASSEMBLY_PART')
);
#540=UNCERTAINTY_MEASURE_WITH_UNIT(LENGTH_MEASURE(2.E-005),#546,
'DISTANCE_ACCURACY_VALUE','Maximum Tolerance applied to model');
#541=(
NAMED_UNIT(*)
SI_UNIT($,.STERADIAN.)
SOLID_ANGLE_UNIT()
);
#542=(
CONVERSION_BASED_UNIT('DEGREE',#544)
NAMED_UNIT(#543)
PLANE_ANGLE_UNIT()
);
#543=DIMENSIONAL_EXPONENTS(0.,0.,0.,0.,0.,0.,0.);
#544=PLANE_ANGLE_MEASURE_WITH_UNIT(PLANE_ANGLE_MEASURE(0.0174532925),#545);
#545=(
NAMED_UNIT(*)
PLANE_ANGLE_UNIT()
SI_UNIT($,.RADIAN.)
);
#546=(
LENGTH_UNIT()
NAMED_UNIT(*)
SI_UNIT(.MILLI.,.METRE.)
);
ENDSEC;
END-ISO-10303-21;
