ISO-10303-21;
HEADER;
/* Generated by software containing ST-Developer
 * from STEP Tools, Inc. (www.steptools.com) 
 */
/* OPTION: using custom schema-name function */

FILE_DESCRIPTION(
/* description */ ('3-D model version:1'),
/* implementation_level */ '2;1');

FILE_NAME(
/* name */ '328-080S27-13M',
/* time_stamp */ '2016-03-24T11:27:39+01:00',
/* author */ ('InteractiveCad'),
/* organization */ ('AB Sandvik Coromant'),
/* preprocessor_version */ 'ST-DEVELOPER v15',
/* originating_system */ 'SIEMENS PLM Software NX 8.5',
/* authorisation */ '');

FILE_SCHEMA (('AP203_CONFIGURATION_CONTROLLED_3D_DESIGN_OF_MECHANICAL_PARTS_AND_ASSEMBLIES_MIM_LF { 1 0 10303 403 2 1 2}'));
ENDSEC;

DATA;
#10=SHAPE_REPRESENTATION_RELATIONSHIP('None',
'relationship between 328_080S27_13M_SIM-None and 328_080S27_13M_SIM-N
one',#92,#11);
#11=ADVANCED_BREP_SHAPE_REPRESENTATION('328_080S27_13M_SIM-None',(#110,
#111),#339);
#12=CC_DESIGN_APPROVAL(#24,(#82));
#13=CC_DESIGN_APPROVAL(#25,(#84));
#14=CC_DESIGN_APPROVAL(#26,(#31));
#15=APPROVAL_PERSON_ORGANIZATION(#69,#24,#18);
#16=APPROVAL_PERSON_ORGANIZATION(#70,#25,#19);
#17=APPROVAL_PERSON_ORGANIZATION(#71,#26,#20);
#18=APPROVAL_ROLE('approver');
#19=APPROVAL_ROLE('approver');
#20=APPROVAL_ROLE('approver');
#21=APPROVAL_DATE_TIME(#39,#24);
#22=APPROVAL_DATE_TIME(#40,#25);
#23=APPROVAL_DATE_TIME(#41,#26);
#24=APPROVAL(#27,' ');
#25=APPROVAL(#28,' ');
#26=APPROVAL(#29,' ');
#27=APPROVAL_STATUS('not_yet_approved');
#28=APPROVAL_STATUS('not_yet_approved');
#29=APPROVAL_STATUS('not_yet_approved');
#30=CC_DESIGN_SECURITY_CLASSIFICATION(#31,(#84));
#31=SECURITY_CLASSIFICATION(' ',' ',#32);
#32=SECURITY_CLASSIFICATION_LEVEL('confidential');
#33=CC_DESIGN_DATE_AND_TIME_ASSIGNMENT(#37,#35,(#82));
#34=CC_DESIGN_DATE_AND_TIME_ASSIGNMENT(#38,#36,(#31));
#35=DATE_TIME_ROLE('creation_date');
#36=DATE_TIME_ROLE('classification_date');
#37=DATE_AND_TIME(#52,#42);
#38=DATE_AND_TIME(#53,#43);
#39=DATE_AND_TIME(#54,#44);
#40=DATE_AND_TIME(#55,#45);
#41=DATE_AND_TIME(#56,#46);
#42=LOCAL_TIME(0,0,0.,#47);
#43=LOCAL_TIME(0,0,0.,#48);
#44=LOCAL_TIME(0,0,0.,#49);
#45=LOCAL_TIME(0,0,0.,#50);
#46=LOCAL_TIME(0,0,0.,#51);
#47=COORDINATED_UNIVERSAL_TIME_OFFSET(0,0,.BEHIND.);
#48=COORDINATED_UNIVERSAL_TIME_OFFSET(0,0,.BEHIND.);
#49=COORDINATED_UNIVERSAL_TIME_OFFSET(0,0,.BEHIND.);
#50=COORDINATED_UNIVERSAL_TIME_OFFSET(0,0,.BEHIND.);
#51=COORDINATED_UNIVERSAL_TIME_OFFSET(0,0,.BEHIND.);
#52=CALENDAR_DATE(0,1,1);
#53=CALENDAR_DATE(0,1,1);
#54=CALENDAR_DATE(0,1,1);
#55=CALENDAR_DATE(0,1,1);
#56=CALENDAR_DATE(0,1,1);
#57=CC_DESIGN_PERSON_AND_ORGANIZATION_ASSIGNMENT(#65,#61,(#82,#84));
#58=CC_DESIGN_PERSON_AND_ORGANIZATION_ASSIGNMENT(#66,#62,(#86));
#59=CC_DESIGN_PERSON_AND_ORGANIZATION_ASSIGNMENT(#67,#63,(#84));
#60=CC_DESIGN_PERSON_AND_ORGANIZATION_ASSIGNMENT(#68,#64,(#31));
#61=PERSON_AND_ORGANIZATION_ROLE('creator');
#62=PERSON_AND_ORGANIZATION_ROLE('design_owner');
#63=PERSON_AND_ORGANIZATION_ROLE('design_supplier');
#64=PERSON_AND_ORGANIZATION_ROLE('classification_officer');
#65=PERSON_AND_ORGANIZATION(#79,#72);
#66=PERSON_AND_ORGANIZATION(#79,#73);
#67=PERSON_AND_ORGANIZATION(#79,#74);
#68=PERSON_AND_ORGANIZATION(#79,#75);
#69=PERSON_AND_ORGANIZATION(#79,#76);
#70=PERSON_AND_ORGANIZATION(#79,#77);
#71=PERSON_AND_ORGANIZATION(#79,#78);
#72=ORGANIZATION(' ',' ',' ');
#73=ORGANIZATION(' ',' ',' ');
#74=ORGANIZATION(' ',' ',' ');
#75=ORGANIZATION(' ',' ',' ');
#76=ORGANIZATION(' ',' ',' ');
#77=ORGANIZATION(' ',' ',' ');
#78=ORGANIZATION(' ',' ',' ');
#79=PERSON(' ',' ',' ',(' '),$,$);
#80=SHAPE_DEFINITION_REPRESENTATION(#81,#92);
#81=PRODUCT_DEFINITION_SHAPE('','',#82);
#82=PRODUCT_DEFINITION(' ','',#84,#83);
#83=DESIGN_CONTEXT('',#91,'design');
#84=PRODUCT_DEFINITION_FORMATION_WITH_SPECIFIED_SOURCE(' ',' ',#86,
 .NOT_KNOWN.);
#85=PRODUCT_RELATED_PRODUCT_CATEGORY('detail','',(#86));
#86=PRODUCT('328_080S27_13M_SIM','328_080S27_13M_SIM',' ',(#89));
#87=PRODUCT_CATEGORY('part',' ');
#88=PRODUCT_CATEGORY(' ','');
#89=MECHANICAL_CONTEXT(' ',#91,'mechanical');
#90=APPLICATION_PROTOCOL_DEFINITION('international standard',
'config_control_design',2010,#91);
#91=APPLICATION_CONTEXT(
'configuration controlled 3D designs of mechanical parts and assemblie
s');
#92=SHAPE_REPRESENTATION('328_080S27_13M_SIM-None',(#235),#339);
#93=PRESENTATION_LAYER_ASSIGNMENT('1','Layer 1',(#110,#111));
#94=STYLED_ITEM('',(#96),#110);
#95=STYLED_ITEM('',(#97),#111);
#96=PRESENTATION_STYLE_ASSIGNMENT((#98));
#97=PRESENTATION_STYLE_ASSIGNMENT((#99));
#98=SURFACE_STYLE_USAGE(.BOTH.,#100);
#99=SURFACE_STYLE_USAGE(.BOTH.,#101);
#100=SURFACE_SIDE_STYLE('',(#102));
#101=SURFACE_SIDE_STYLE('',(#103));
#102=SURFACE_STYLE_FILL_AREA(#104);
#103=SURFACE_STYLE_FILL_AREA(#105);
#104=FILL_AREA_STYLE('',(#106));
#105=FILL_AREA_STYLE('',(#107));
#106=FILL_AREA_STYLE_COLOUR('',#108);
#107=FILL_AREA_STYLE_COLOUR('',#109);
#108=COLOUR_RGB('TLS_NOCUT',0.499992370489052,0.499992370489052,0.499992370489052);
#109=COLOUR_RGB('TLS_CUT',0.8,0.8,0.8);
#110=MANIFOLD_SOLID_BREP('',#112);
#111=MANIFOLD_SOLID_BREP('',#113);
#112=CLOSED_SHELL('',(#120,#121,#122,#123,#124,#125,#126));
#113=CLOSED_SHELL('',(#127,#128,#129,#130));
#114=CONICAL_SURFACE('',#248,33.9798763646836,0.0902427990315178);
#115=CONICAL_SURFACE('',#249,34.0017693549607,45.0000000000078);
#116=CYLINDRICAL_SURFACE('',#240,0.00176935496065722);
#117=CYLINDRICAL_SURFACE('',#244,36.2017693549606);
#118=CYLINDRICAL_SURFACE('',#254,40.);
#119=CYLINDRICAL_SURFACE('',#257,35.);
#120=ADVANCED_FACE('',(#136,#137),#131,.T.);
#121=ADVANCED_FACE('',(#138,#139),#116,.F.);
#122=ADVANCED_FACE('',(#140,#141),#132,.T.);
#123=ADVANCED_FACE('',(#142,#143),#117,.T.);
#124=ADVANCED_FACE('',(#144,#145),#133,.T.);
#125=ADVANCED_FACE('',(#146,#147),#114,.T.);
#126=ADVANCED_FACE('',(#148,#149),#115,.T.);
#127=ADVANCED_FACE('',(#150,#151),#134,.T.);
#128=ADVANCED_FACE('',(#152,#153),#118,.T.);
#129=ADVANCED_FACE('',(#154,#155),#135,.T.);
#130=ADVANCED_FACE('',(#156,#157),#119,.F.);
#131=PLANE('',#238);
#132=PLANE('',#242);
#133=PLANE('',#246);
#134=PLANE('',#252);
#135=PLANE('',#256);
#136=FACE_BOUND('',#158,.T.);
#137=FACE_BOUND('',#159,.T.);
#138=FACE_BOUND('',#160,.T.);
#139=FACE_BOUND('',#161,.T.);
#140=FACE_BOUND('',#162,.T.);
#141=FACE_BOUND('',#163,.T.);
#142=FACE_BOUND('',#164,.T.);
#143=FACE_BOUND('',#165,.T.);
#144=FACE_BOUND('',#166,.T.);
#145=FACE_BOUND('',#167,.T.);
#146=FACE_BOUND('',#168,.T.);
#147=FACE_BOUND('',#169,.T.);
#148=FACE_BOUND('',#170,.T.);
#149=FACE_BOUND('',#171,.T.);
#150=FACE_BOUND('',#172,.T.);
#151=FACE_BOUND('',#173,.T.);
#152=FACE_BOUND('',#174,.T.);
#153=FACE_BOUND('',#175,.T.);
#154=FACE_BOUND('',#176,.T.);
#155=FACE_BOUND('',#177,.T.);
#156=FACE_BOUND('',#178,.T.);
#157=FACE_BOUND('',#179,.T.);
#158=EDGE_LOOP('',(#180));
#159=EDGE_LOOP('',(#181));
#160=EDGE_LOOP('',(#182));
#161=EDGE_LOOP('',(#183));
#162=EDGE_LOOP('',(#184));
#163=EDGE_LOOP('',(#185));
#164=EDGE_LOOP('',(#186));
#165=EDGE_LOOP('',(#187));
#166=EDGE_LOOP('',(#188));
#167=EDGE_LOOP('',(#189));
#168=EDGE_LOOP('',(#190));
#169=EDGE_LOOP('',(#191));
#170=EDGE_LOOP('',(#192));
#171=EDGE_LOOP('',(#193));
#172=EDGE_LOOP('',(#194));
#173=EDGE_LOOP('',(#195));
#174=EDGE_LOOP('',(#196));
#175=EDGE_LOOP('',(#197));
#176=EDGE_LOOP('',(#198));
#177=EDGE_LOOP('',(#199));
#178=EDGE_LOOP('',(#200));
#179=EDGE_LOOP('',(#201));
#180=ORIENTED_EDGE('',*,*,#213,.T.);
#181=ORIENTED_EDGE('',*,*,#214,.F.);
#182=ORIENTED_EDGE('',*,*,#215,.T.);
#183=ORIENTED_EDGE('',*,*,#213,.F.);
#184=ORIENTED_EDGE('',*,*,#216,.T.);
#185=ORIENTED_EDGE('',*,*,#215,.F.);
#186=ORIENTED_EDGE('',*,*,#217,.T.);
#187=ORIENTED_EDGE('',*,*,#216,.F.);
#188=ORIENTED_EDGE('',*,*,#218,.T.);
#189=ORIENTED_EDGE('',*,*,#217,.F.);
#190=ORIENTED_EDGE('',*,*,#219,.T.);
#191=ORIENTED_EDGE('',*,*,#218,.F.);
#192=ORIENTED_EDGE('',*,*,#214,.T.);
#193=ORIENTED_EDGE('',*,*,#219,.F.);
#194=ORIENTED_EDGE('',*,*,#220,.T.);
#195=ORIENTED_EDGE('',*,*,#221,.F.);
#196=ORIENTED_EDGE('',*,*,#222,.T.);
#197=ORIENTED_EDGE('',*,*,#220,.F.);
#198=ORIENTED_EDGE('',*,*,#223,.T.);
#199=ORIENTED_EDGE('',*,*,#222,.F.);
#200=ORIENTED_EDGE('',*,*,#221,.T.);
#201=ORIENTED_EDGE('',*,*,#223,.F.);
#202=VERTEX_POINT('',#306);
#203=VERTEX_POINT('',#308);
#204=VERTEX_POINT('',#311);
#205=VERTEX_POINT('',#314);
#206=VERTEX_POINT('',#317);
#207=VERTEX_POINT('',#320);
#208=VERTEX_POINT('',#323);
#209=VERTEX_POINT('',#327);
#210=VERTEX_POINT('',#329);
#211=VERTEX_POINT('',#332);
#212=VERTEX_POINT('',#335);
#213=EDGE_CURVE('',#202,#202,#224,.T.);
#214=EDGE_CURVE('',#203,#203,#225,.T.);
#215=EDGE_CURVE('',#204,#204,#226,.T.);
#216=EDGE_CURVE('',#205,#205,#227,.T.);
#217=EDGE_CURVE('',#206,#206,#228,.T.);
#218=EDGE_CURVE('',#207,#207,#229,.T.);
#219=EDGE_CURVE('',#208,#208,#230,.T.);
#220=EDGE_CURVE('',#209,#209,#231,.T.);
#221=EDGE_CURVE('',#210,#210,#232,.T.);
#222=EDGE_CURVE('',#211,#211,#233,.T.);
#223=EDGE_CURVE('',#212,#212,#234,.T.);
#224=CIRCLE('',#236,0.00176935496065677);
#225=CIRCLE('',#237,33.0017693549606);
#226=CIRCLE('',#239,0.00176935496065767);
#227=CIRCLE('',#241,36.2017693549606);
#228=CIRCLE('',#243,36.2017693549606);
#229=CIRCLE('',#245,33.9798763646836);
#230=CIRCLE('',#247,34.0017693549607);
#231=CIRCLE('',#250,40.);
#232=CIRCLE('',#251,35.);
#233=CIRCLE('',#253,40.);
#234=CIRCLE('',#255,35.);
#235=AXIS2_PLACEMENT_3D('',#304,#258,#259);
#236=AXIS2_PLACEMENT_3D('',#305,#260,#261);
#237=AXIS2_PLACEMENT_3D('',#307,#262,#263);
#238=AXIS2_PLACEMENT_3D('',#309,#264,#265);
#239=AXIS2_PLACEMENT_3D('',#310,#266,#267);
#240=AXIS2_PLACEMENT_3D('',#312,#268,#269);
#241=AXIS2_PLACEMENT_3D('',#313,#270,#271);
#242=AXIS2_PLACEMENT_3D('',#315,#272,#273);
#243=AXIS2_PLACEMENT_3D('',#316,#274,#275);
#244=AXIS2_PLACEMENT_3D('',#318,#276,#277);
#245=AXIS2_PLACEMENT_3D('',#319,#278,#279);
#246=AXIS2_PLACEMENT_3D('',#321,#280,#281);
#247=AXIS2_PLACEMENT_3D('',#322,#282,#283);
#248=AXIS2_PLACEMENT_3D('',#324,#284,#285);
#249=AXIS2_PLACEMENT_3D('',#325,#286,#287);
#250=AXIS2_PLACEMENT_3D('',#326,#288,#289);
#251=AXIS2_PLACEMENT_3D('',#328,#290,#291);
#252=AXIS2_PLACEMENT_3D('',#330,#292,#293);
#253=AXIS2_PLACEMENT_3D('',#331,#294,#295);
#254=AXIS2_PLACEMENT_3D('',#333,#296,#297);
#255=AXIS2_PLACEMENT_3D('',#334,#298,#299);
#256=AXIS2_PLACEMENT_3D('',#336,#300,#301);
#257=AXIS2_PLACEMENT_3D('',#337,#302,#303);
#258=DIRECTION('',(0.,0.,1.));
#259=DIRECTION('',(1.,0.,0.));
#260=DIRECTION('',(0.,0.,-1.));
#261=DIRECTION('',(-1.,0.,0.));
#262=DIRECTION('',(0.,0.,-1.));
#263=DIRECTION('',(-1.,0.,0.));
#264=DIRECTION('',(0.,0.,1.));
#265=DIRECTION('',(1.,0.,0.));
#266=DIRECTION('',(0.,0.,-1.));
#267=DIRECTION('',(-1.,0.,0.));
#268=DIRECTION('',(0.,0.,-1.));
#269=DIRECTION('',(-1.,0.,0.));
#270=DIRECTION('',(0.,0.,-1.));
#271=DIRECTION('',(-1.,0.,0.));
#272=DIRECTION('',(0.,0.,-1.));
#273=DIRECTION('',(-1.,0.,0.));
#274=DIRECTION('',(0.,0.,-1.));
#275=DIRECTION('',(-1.,0.,0.));
#276=DIRECTION('',(0.,0.,-1.));
#277=DIRECTION('',(-1.,0.,0.));
#278=DIRECTION('',(0.,0.,-1.));
#279=DIRECTION('',(-1.,0.,0.));
#280=DIRECTION('',(0.,0.,1.));
#281=DIRECTION('',(1.,0.,0.));
#282=DIRECTION('',(0.,0.,-1.));
#283=DIRECTION('',(-1.,0.,0.));
#284=DIRECTION('',(0.,0.,1.));
#285=DIRECTION('',(1.,0.,-2.43949906797156E-016));
#286=DIRECTION('',(0.,0.,-1.));
#287=DIRECTION('',(-1.,0.,1.27923054837432E-017));
#288=DIRECTION('',(0.,0.,-1.));
#289=DIRECTION('',(-1.,0.,0.));
#290=DIRECTION('',(0.,0.,-1.));
#291=DIRECTION('',(-1.,0.,0.));
#292=DIRECTION('',(0.,0.,-1.));
#293=DIRECTION('',(-1.,0.,0.));
#294=DIRECTION('',(0.,0.,-1.));
#295=DIRECTION('',(-1.,0.,0.));
#296=DIRECTION('',(0.,0.,-1.));
#297=DIRECTION('',(-1.,0.,0.));
#298=DIRECTION('',(0.,0.,-1.));
#299=DIRECTION('',(-1.,0.,0.));
#300=DIRECTION('',(0.,0.,1.));
#301=DIRECTION('',(1.,0.,0.));
#302=DIRECTION('',(0.,0.,-1.));
#303=DIRECTION('',(-1.,0.,0.));
#304=CARTESIAN_POINT('',(0.,0.,0.));
#305=CARTESIAN_POINT('',(0.,0.,-1.41164396795165E-005));
#306=CARTESIAN_POINT('',(-0.00176935496065677,0.,-1.41164396795165E-005));
#307=CARTESIAN_POINT('',(0.,0.,-1.41164397068384E-005));
#308=CARTESIAN_POINT('',(-33.0017693549606,0.,-1.41164397068384E-005));
#309=CARTESIAN_POINT('',(0.,33.0017693549606,-1.41164396930682E-005));
#310=CARTESIAN_POINT('',(0.,0.,-16.2000141164397));
#311=CARTESIAN_POINT('',(-0.00176935496065767,0.,-16.2000141164397));
#312=CARTESIAN_POINT('',(0.,0.,2.));
#313=CARTESIAN_POINT('',(0.,0.,-16.2000141164397));
#314=CARTESIAN_POINT('',(-36.2017693549606,0.,-16.2000141164397));
#315=CARTESIAN_POINT('',(0.,0.00176935496065767,-16.2000141164397));
#316=CARTESIAN_POINT('',(0.,0.,-14.9000141164397));
#317=CARTESIAN_POINT('',(-36.2017693549606,0.,-14.9000141164397));
#318=CARTESIAN_POINT('',(0.,0.,2.));
#319=CARTESIAN_POINT('',(0.,0.,-14.9000141164397));
#320=CARTESIAN_POINT('',(-33.9798763646836,0.,-14.9000141164397));
#321=CARTESIAN_POINT('',(0.,36.2017693549606,-14.9000141164397));
#322=CARTESIAN_POINT('',(0.,0.,-1.00001411643948));
#323=CARTESIAN_POINT('',(-34.0017693549607,0.,-1.00001411643948));
#324=CARTESIAN_POINT('',(0.,0.,-14.9000141164397));
#325=CARTESIAN_POINT('',(0.,0.,-1.00001411643948));
#326=CARTESIAN_POINT('',(0.,0.,-16.2));
#327=CARTESIAN_POINT('',(-40.,0.,-16.2));
#328=CARTESIAN_POINT('',(0.,0.,-16.2));
#329=CARTESIAN_POINT('',(-35.,0.,-16.2));
#330=CARTESIAN_POINT('',(35.,0.,-16.2));
#331=CARTESIAN_POINT('',(0.,0.,-14.9));
#332=CARTESIAN_POINT('',(-40.,0.,-14.9));
#333=CARTESIAN_POINT('',(0.,0.,0.));
#334=CARTESIAN_POINT('',(0.,0.,-14.9));
#335=CARTESIAN_POINT('',(-35.,0.,-14.9));
#336=CARTESIAN_POINT('',(40.,0.,-14.9));
#337=CARTESIAN_POINT('',(0.,0.,0.));
#338=MECHANICAL_DESIGN_GEOMETRIC_PRESENTATION_REPRESENTATION('',(#94,#95),
#339);
#339=(
GEOMETRIC_REPRESENTATION_CONTEXT(3)
GLOBAL_UNCERTAINTY_ASSIGNED_CONTEXT((#340))
GLOBAL_UNIT_ASSIGNED_CONTEXT((#346,#342,#341))
REPRESENTATION_CONTEXT('328_080S27_13M_SIM','TOP_LEVEL_ASSEMBLY_PART')
);
#340=UNCERTAINTY_MEASURE_WITH_UNIT(LENGTH_MEASURE(2.E-005),#346,
'DISTANCE_ACCURACY_VALUE','Maximum Tolerance applied to model');
#341=(
NAMED_UNIT(*)
SI_UNIT($,.STERADIAN.)
SOLID_ANGLE_UNIT()
);
#342=(
CONVERSION_BASED_UNIT('DEGREE',#344)
NAMED_UNIT(#343)
PLANE_ANGLE_UNIT()
);
#343=DIMENSIONAL_EXPONENTS(0.,0.,0.,0.,0.,0.,0.);
#344=PLANE_ANGLE_MEASURE_WITH_UNIT(PLANE_ANGLE_MEASURE(0.0174532925),#345);
#345=(
NAMED_UNIT(*)
PLANE_ANGLE_UNIT()
SI_UNIT($,.RADIAN.)
);
#346=(
LENGTH_UNIT()
NAMED_UNIT(*)
SI_UNIT(.MILLI.,.METRE.)
);
ENDSEC;
END-ISO-10303-21;
