ISO-10303-21;
HEADER;
/* Generated by software containing ST-Developer
 * from STEP Tools, Inc. (www.steptools.com) 
 */
/* OPTION: using custom schema-name function */

FILE_DESCRIPTION(
/* description */ ('3-D model version:1'),
/* implementation_level */ '2;1');

FILE_NAME(
/* name */ '328-063S22-13M',
/* time_stamp */ '2016-03-24T11:27:33+01:00',
/* author */ ('InteractiveCad'),
/* organization */ ('AB Sandvik Coromant'),
/* preprocessor_version */ 'ST-DEVELOPER v15',
/* originating_system */ 'SIEMENS PLM Software NX 8.5',
/* authorisation */ '');

FILE_SCHEMA (('AP203_CONFIGURATION_CONTROLLED_3D_DESIGN_OF_MECHANICAL_PARTS_AND_ASSEMBLIES_MIM_LF { 1 0 10303 403 2 1 2}'));
ENDSEC;

DATA;
#10=SHAPE_REPRESENTATION_RELATIONSHIP('None',
'relationship between 328_063S22_13M_SIM-None and 328_063S22_13M_SIM-N
one',#92,#11);
#11=ADVANCED_BREP_SHAPE_REPRESENTATION('328_063S22_13M_SIM-None',(#110,
#111),#309);
#12=CC_DESIGN_APPROVAL(#24,(#82));
#13=CC_DESIGN_APPROVAL(#25,(#84));
#14=CC_DESIGN_APPROVAL(#26,(#31));
#15=APPROVAL_PERSON_ORGANIZATION(#69,#24,#18);
#16=APPROVAL_PERSON_ORGANIZATION(#70,#25,#19);
#17=APPROVAL_PERSON_ORGANIZATION(#71,#26,#20);
#18=APPROVAL_ROLE('approver');
#19=APPROVAL_ROLE('approver');
#20=APPROVAL_ROLE('approver');
#21=APPROVAL_DATE_TIME(#39,#24);
#22=APPROVAL_DATE_TIME(#40,#25);
#23=APPROVAL_DATE_TIME(#41,#26);
#24=APPROVAL(#27,' ');
#25=APPROVAL(#28,' ');
#26=APPROVAL(#29,' ');
#27=APPROVAL_STATUS('not_yet_approved');
#28=APPROVAL_STATUS('not_yet_approved');
#29=APPROVAL_STATUS('not_yet_approved');
#30=CC_DESIGN_SECURITY_CLASSIFICATION(#31,(#84));
#31=SECURITY_CLASSIFICATION(' ',' ',#32);
#32=SECURITY_CLASSIFICATION_LEVEL('confidential');
#33=CC_DESIGN_DATE_AND_TIME_ASSIGNMENT(#37,#35,(#82));
#34=CC_DESIGN_DATE_AND_TIME_ASSIGNMENT(#38,#36,(#31));
#35=DATE_TIME_ROLE('creation_date');
#36=DATE_TIME_ROLE('classification_date');
#37=DATE_AND_TIME(#52,#42);
#38=DATE_AND_TIME(#53,#43);
#39=DATE_AND_TIME(#54,#44);
#40=DATE_AND_TIME(#55,#45);
#41=DATE_AND_TIME(#56,#46);
#42=LOCAL_TIME(0,0,0.,#47);
#43=LOCAL_TIME(0,0,0.,#48);
#44=LOCAL_TIME(0,0,0.,#49);
#45=LOCAL_TIME(0,0,0.,#50);
#46=LOCAL_TIME(0,0,0.,#51);
#47=COORDINATED_UNIVERSAL_TIME_OFFSET(0,0,.BEHIND.);
#48=COORDINATED_UNIVERSAL_TIME_OFFSET(0,0,.BEHIND.);
#49=COORDINATED_UNIVERSAL_TIME_OFFSET(0,0,.BEHIND.);
#50=COORDINATED_UNIVERSAL_TIME_OFFSET(0,0,.BEHIND.);
#51=COORDINATED_UNIVERSAL_TIME_OFFSET(0,0,.BEHIND.);
#52=CALENDAR_DATE(0,1,1);
#53=CALENDAR_DATE(0,1,1);
#54=CALENDAR_DATE(0,1,1);
#55=CALENDAR_DATE(0,1,1);
#56=CALENDAR_DATE(0,1,1);
#57=CC_DESIGN_PERSON_AND_ORGANIZATION_ASSIGNMENT(#65,#61,(#82,#84));
#58=CC_DESIGN_PERSON_AND_ORGANIZATION_ASSIGNMENT(#66,#62,(#86));
#59=CC_DESIGN_PERSON_AND_ORGANIZATION_ASSIGNMENT(#67,#63,(#84));
#60=CC_DESIGN_PERSON_AND_ORGANIZATION_ASSIGNMENT(#68,#64,(#31));
#61=PERSON_AND_ORGANIZATION_ROLE('creator');
#62=PERSON_AND_ORGANIZATION_ROLE('design_owner');
#63=PERSON_AND_ORGANIZATION_ROLE('design_supplier');
#64=PERSON_AND_ORGANIZATION_ROLE('classification_officer');
#65=PERSON_AND_ORGANIZATION(#79,#72);
#66=PERSON_AND_ORGANIZATION(#79,#73);
#67=PERSON_AND_ORGANIZATION(#79,#74);
#68=PERSON_AND_ORGANIZATION(#79,#75);
#69=PERSON_AND_ORGANIZATION(#79,#76);
#70=PERSON_AND_ORGANIZATION(#79,#77);
#71=PERSON_AND_ORGANIZATION(#79,#78);
#72=ORGANIZATION(' ',' ',' ');
#73=ORGANIZATION(' ',' ',' ');
#74=ORGANIZATION(' ',' ',' ');
#75=ORGANIZATION(' ',' ',' ');
#76=ORGANIZATION(' ',' ',' ');
#77=ORGANIZATION(' ',' ',' ');
#78=ORGANIZATION(' ',' ',' ');
#79=PERSON(' ',' ',' ',(' '),$,$);
#80=SHAPE_DEFINITION_REPRESENTATION(#81,#92);
#81=PRODUCT_DEFINITION_SHAPE('','',#82);
#82=PRODUCT_DEFINITION(' ','',#84,#83);
#83=DESIGN_CONTEXT('',#91,'design');
#84=PRODUCT_DEFINITION_FORMATION_WITH_SPECIFIED_SOURCE(' ',' ',#86,
 .NOT_KNOWN.);
#85=PRODUCT_RELATED_PRODUCT_CATEGORY('detail','',(#86));
#86=PRODUCT('328_063S22_13M_SIM','328_063S22_13M_SIM',' ',(#89));
#87=PRODUCT_CATEGORY('part',' ');
#88=PRODUCT_CATEGORY(' ','');
#89=MECHANICAL_CONTEXT(' ',#91,'mechanical');
#90=APPLICATION_PROTOCOL_DEFINITION('international standard',
'config_control_design',2010,#91);
#91=APPLICATION_CONTEXT(
'configuration controlled 3D designs of mechanical parts and assemblie
s');
#92=SHAPE_REPRESENTATION('328_063S22_13M_SIM-None',(#218),#309);
#93=PRESENTATION_LAYER_ASSIGNMENT('1','Layer 1',(#110,#111));
#94=STYLED_ITEM('',(#96),#110);
#95=STYLED_ITEM('',(#97),#111);
#96=PRESENTATION_STYLE_ASSIGNMENT((#98));
#97=PRESENTATION_STYLE_ASSIGNMENT((#99));
#98=SURFACE_STYLE_USAGE(.BOTH.,#100);
#99=SURFACE_STYLE_USAGE(.BOTH.,#101);
#100=SURFACE_SIDE_STYLE('',(#102));
#101=SURFACE_SIDE_STYLE('',(#103));
#102=SURFACE_STYLE_FILL_AREA(#104);
#103=SURFACE_STYLE_FILL_AREA(#105);
#104=FILL_AREA_STYLE('',(#106));
#105=FILL_AREA_STYLE('',(#107));
#106=FILL_AREA_STYLE_COLOUR('',#108);
#107=FILL_AREA_STYLE_COLOUR('',#109);
#108=COLOUR_RGB('TLS_NOCUT',0.499992370489052,0.499992370489052,0.499992370489052);
#109=COLOUR_RGB('TLS_CUT',0.8,0.8,0.8);
#110=MANIFOLD_SOLID_BREP('',#112);
#111=MANIFOLD_SOLID_BREP('',#113);
#112=CLOSED_SHELL('',(#122,#123,#124,#125,#126,#127));
#113=CLOSED_SHELL('',(#128,#129,#130,#131));
#114=PLANE('',#226);
#115=PLANE('',#229);
#116=PLANE('',#232);
#117=PLANE('',#236);
#118=FACE_OUTER_BOUND('',#159,.T.);
#119=VERTEX_LOOP('',#193);
#120=CONICAL_SURFACE('',#223,25.499999444993,44.9999999999995);
#121=CONICAL_SURFACE('',#224,24.499999444993,89.9999548740492);
#122=ADVANCED_FACE('',(#136,#137),#132,.T.);
#123=ADVANCED_FACE('',(#138,#139),#120,.T.);
#124=ADVANCED_FACE('',(#140,#141),#121,.T.);
#125=ADVANCED_FACE('',(#118),#114,.F.);
#126=ADVANCED_FACE('',(#142,#143),#133,.T.);
#127=ADVANCED_FACE('',(#144,#145),#115,.F.);
#128=ADVANCED_FACE('',(#146,#147),#116,.T.);
#129=ADVANCED_FACE('',(#148,#149),#134,.T.);
#130=ADVANCED_FACE('',(#150,#151),#117,.T.);
#131=ADVANCED_FACE('',(#152,#153),#135,.F.);
#132=CYLINDRICAL_SURFACE('',#221,25.499999444993);
#133=CYLINDRICAL_SURFACE('',#228,27.);
#134=CYLINDRICAL_SURFACE('',#234,31.5);
#135=CYLINDRICAL_SURFACE('',#237,26.5);
#136=FACE_BOUND('',#154,.T.);
#137=FACE_BOUND('',#155,.T.);
#138=FACE_BOUND('',#156,.T.);
#139=FACE_BOUND('',#157,.T.);
#140=FACE_BOUND('',#119,.T.);
#141=FACE_BOUND('',#158,.T.);
#142=FACE_BOUND('',#160,.T.);
#143=FACE_BOUND('',#161,.T.);
#144=FACE_BOUND('',#162,.T.);
#145=FACE_BOUND('',#163,.T.);
#146=FACE_BOUND('',#164,.T.);
#147=FACE_BOUND('',#165,.T.);
#148=FACE_BOUND('',#166,.T.);
#149=FACE_BOUND('',#167,.T.);
#150=FACE_BOUND('',#168,.T.);
#151=FACE_BOUND('',#169,.T.);
#152=FACE_BOUND('',#170,.T.);
#153=FACE_BOUND('',#171,.T.);
#154=EDGE_LOOP('',(#172));
#155=EDGE_LOOP('',(#173));
#156=EDGE_LOOP('',(#174));
#157=EDGE_LOOP('',(#175));
#158=EDGE_LOOP('',(#176));
#159=EDGE_LOOP('',(#177));
#160=EDGE_LOOP('',(#178));
#161=EDGE_LOOP('',(#179));
#162=EDGE_LOOP('',(#180));
#163=EDGE_LOOP('',(#181));
#164=EDGE_LOOP('',(#182));
#165=EDGE_LOOP('',(#183));
#166=EDGE_LOOP('',(#184));
#167=EDGE_LOOP('',(#185));
#168=EDGE_LOOP('',(#186));
#169=EDGE_LOOP('',(#187));
#170=EDGE_LOOP('',(#188));
#171=EDGE_LOOP('',(#189));
#172=ORIENTED_EDGE('',*,*,#200,.F.);
#173=ORIENTED_EDGE('',*,*,#201,.T.);
#174=ORIENTED_EDGE('',*,*,#202,.F.);
#175=ORIENTED_EDGE('',*,*,#200,.T.);
#176=ORIENTED_EDGE('',*,*,#202,.T.);
#177=ORIENTED_EDGE('',*,*,#203,.F.);
#178=ORIENTED_EDGE('',*,*,#204,.F.);
#179=ORIENTED_EDGE('',*,*,#203,.T.);
#180=ORIENTED_EDGE('',*,*,#201,.F.);
#181=ORIENTED_EDGE('',*,*,#204,.T.);
#182=ORIENTED_EDGE('',*,*,#205,.T.);
#183=ORIENTED_EDGE('',*,*,#206,.F.);
#184=ORIENTED_EDGE('',*,*,#207,.T.);
#185=ORIENTED_EDGE('',*,*,#205,.F.);
#186=ORIENTED_EDGE('',*,*,#208,.T.);
#187=ORIENTED_EDGE('',*,*,#207,.F.);
#188=ORIENTED_EDGE('',*,*,#206,.T.);
#189=ORIENTED_EDGE('',*,*,#208,.F.);
#190=VERTEX_POINT('',#280);
#191=VERTEX_POINT('',#282);
#192=VERTEX_POINT('',#285);
#193=VERTEX_POINT('',#287);
#194=VERTEX_POINT('',#290);
#195=VERTEX_POINT('',#293);
#196=VERTEX_POINT('',#297);
#197=VERTEX_POINT('',#299);
#198=VERTEX_POINT('',#302);
#199=VERTEX_POINT('',#305);
#200=EDGE_CURVE('',#190,#190,#209,.T.);
#201=EDGE_CURVE('',#191,#191,#210,.T.);
#202=EDGE_CURVE('',#192,#192,#211,.T.);
#203=EDGE_CURVE('',#194,#194,#212,.T.);
#204=EDGE_CURVE('',#195,#195,#213,.T.);
#205=EDGE_CURVE('',#196,#196,#214,.T.);
#206=EDGE_CURVE('',#197,#197,#215,.T.);
#207=EDGE_CURVE('',#198,#198,#216,.T.);
#208=EDGE_CURVE('',#199,#199,#217,.T.);
#209=CIRCLE('',#219,25.499999444993);
#210=CIRCLE('',#220,25.499999444993);
#211=CIRCLE('',#222,24.499999444993);
#212=CIRCLE('',#225,27.);
#213=CIRCLE('',#227,27.);
#214=CIRCLE('',#230,31.5);
#215=CIRCLE('',#231,26.5);
#216=CIRCLE('',#233,31.5);
#217=CIRCLE('',#235,26.5);
#218=AXIS2_PLACEMENT_3D('',#278,#238,#239);
#219=AXIS2_PLACEMENT_3D('',#279,#240,#241);
#220=AXIS2_PLACEMENT_3D('',#281,#242,#243);
#221=AXIS2_PLACEMENT_3D('',#283,#244,#245);
#222=AXIS2_PLACEMENT_3D('',#284,#246,#247);
#223=AXIS2_PLACEMENT_3D('',#286,#248,#249);
#224=AXIS2_PLACEMENT_3D('',#288,#250,#251);
#225=AXIS2_PLACEMENT_3D('',#289,#252,#253);
#226=AXIS2_PLACEMENT_3D('',#291,#254,#255);
#227=AXIS2_PLACEMENT_3D('',#292,#256,#257);
#228=AXIS2_PLACEMENT_3D('',#294,#258,#259);
#229=AXIS2_PLACEMENT_3D('',#295,#260,#261);
#230=AXIS2_PLACEMENT_3D('',#296,#262,#263);
#231=AXIS2_PLACEMENT_3D('',#298,#264,#265);
#232=AXIS2_PLACEMENT_3D('',#300,#266,#267);
#233=AXIS2_PLACEMENT_3D('',#301,#268,#269);
#234=AXIS2_PLACEMENT_3D('',#303,#270,#271);
#235=AXIS2_PLACEMENT_3D('',#304,#272,#273);
#236=AXIS2_PLACEMENT_3D('',#306,#274,#275);
#237=AXIS2_PLACEMENT_3D('',#307,#276,#277);
#238=DIRECTION('',(0.,0.,1.));
#239=DIRECTION('',(1.,0.,0.));
#240=DIRECTION('',(0.,0.,1.));
#241=DIRECTION('',(1.,0.,0.));
#242=DIRECTION('',(0.,0.,1.));
#243=DIRECTION('',(1.,0.,0.));
#244=DIRECTION('',(0.,0.,1.));
#245=DIRECTION('',(1.,0.,0.));
#246=DIRECTION('',(0.,0.,1.));
#247=DIRECTION('',(1.,0.,0.));
#248=DIRECTION('',(0.,0.,-1.));
#249=DIRECTION('',(-1.,0.,-9.11343026024694E-017));
#250=DIRECTION('',(0.,0.,-1.));
#251=DIRECTION('',(-1.,0.,1.36626040815115E-023));
#252=DIRECTION('',(0.,0.,1.));
#253=DIRECTION('',(1.,0.,0.));
#254=DIRECTION('',(0.,0.,1.));
#255=DIRECTION('',(1.,0.,0.));
#256=DIRECTION('',(0.,0.,1.));
#257=DIRECTION('',(1.,0.,0.));
#258=DIRECTION('',(0.,0.,1.));
#259=DIRECTION('',(1.,0.,0.));
#260=DIRECTION('',(0.,0.,-1.));
#261=DIRECTION('',(-1.,0.,0.));
#262=DIRECTION('',(0.,0.,-1.));
#263=DIRECTION('',(-1.,0.,0.));
#264=DIRECTION('',(0.,0.,-1.));
#265=DIRECTION('',(-1.,0.,0.));
#266=DIRECTION('',(0.,0.,-1.));
#267=DIRECTION('',(-1.,0.,0.));
#268=DIRECTION('',(0.,0.,-1.));
#269=DIRECTION('',(-1.,0.,0.));
#270=DIRECTION('',(0.,0.,-1.));
#271=DIRECTION('',(-1.,0.,0.));
#272=DIRECTION('',(0.,0.,-1.));
#273=DIRECTION('',(-1.,0.,0.));
#274=DIRECTION('',(0.,0.,1.));
#275=DIRECTION('',(1.,0.,0.));
#276=DIRECTION('',(0.,0.,-1.));
#277=DIRECTION('',(-1.,0.,0.));
#278=CARTESIAN_POINT('',(0.,0.,0.));
#279=CARTESIAN_POINT('',(0.,0.,-1.00001929611184));
#280=CARTESIAN_POINT('',(25.499999444993,0.,-1.00001929611184));
#281=CARTESIAN_POINT('',(0.,0.,-12.9));
#282=CARTESIAN_POINT('',(25.499999444993,0.,-12.9));
#283=CARTESIAN_POINT('',(0.,0.,-14.2));
#284=CARTESIAN_POINT('',(0.,0.,-1.92961118368473E-005));
#285=CARTESIAN_POINT('',(24.499999444993,0.,-1.92961118368473E-005));
#286=CARTESIAN_POINT('',(0.,0.,-1.00001929611184));
#287=CARTESIAN_POINT('',(0.,0.,3.30872245021211E-021));
#288=CARTESIAN_POINT('',(0.,0.,-1.92961118368473E-005));
#289=CARTESIAN_POINT('',(0.,0.,-14.2));
#290=CARTESIAN_POINT('',(27.,0.,-14.2));
#291=CARTESIAN_POINT('',(0.,0.,-14.2));
#292=CARTESIAN_POINT('',(0.,0.,-12.9));
#293=CARTESIAN_POINT('',(27.,0.,-12.9));
#294=CARTESIAN_POINT('',(0.,0.,-14.2));
#295=CARTESIAN_POINT('',(0.,27.,-12.9));
#296=CARTESIAN_POINT('',(0.,0.,-14.2));
#297=CARTESIAN_POINT('',(-31.5,0.,-14.2));
#298=CARTESIAN_POINT('',(0.,0.,-14.2));
#299=CARTESIAN_POINT('',(-26.5,0.,-14.2));
#300=CARTESIAN_POINT('',(26.5,0.,-14.2));
#301=CARTESIAN_POINT('',(0.,0.,-12.9));
#302=CARTESIAN_POINT('',(-31.5,0.,-12.9));
#303=CARTESIAN_POINT('',(0.,0.,0.));
#304=CARTESIAN_POINT('',(0.,0.,-12.9));
#305=CARTESIAN_POINT('',(-26.5,0.,-12.9));
#306=CARTESIAN_POINT('',(31.5,0.,-12.9));
#307=CARTESIAN_POINT('',(0.,0.,0.));
#308=MECHANICAL_DESIGN_GEOMETRIC_PRESENTATION_REPRESENTATION('',(#94,#95),
#309);
#309=(
GEOMETRIC_REPRESENTATION_CONTEXT(3)
GLOBAL_UNCERTAINTY_ASSIGNED_CONTEXT((#310))
GLOBAL_UNIT_ASSIGNED_CONTEXT((#316,#312,#311))
REPRESENTATION_CONTEXT('328_063S22_13M_SIM','TOP_LEVEL_ASSEMBLY_PART')
);
#310=UNCERTAINTY_MEASURE_WITH_UNIT(LENGTH_MEASURE(2.E-005),#316,
'DISTANCE_ACCURACY_VALUE','Maximum Tolerance applied to model');
#311=(
NAMED_UNIT(*)
SI_UNIT($,.STERADIAN.)
SOLID_ANGLE_UNIT()
);
#312=(
CONVERSION_BASED_UNIT('DEGREE',#314)
NAMED_UNIT(#313)
PLANE_ANGLE_UNIT()
);
#313=DIMENSIONAL_EXPONENTS(0.,0.,0.,0.,0.,0.,0.);
#314=PLANE_ANGLE_MEASURE_WITH_UNIT(PLANE_ANGLE_MEASURE(0.0174532925),#315);
#315=(
NAMED_UNIT(*)
PLANE_ANGLE_UNIT()
SI_UNIT($,.RADIAN.)
);
#316=(
LENGTH_UNIT()
NAMED_UNIT(*)
SI_UNIT(.MILLI.,.METRE.)
);
ENDSEC;
END-ISO-10303-21;
