ISO-10303-21;
HEADER;
/* Generated by software containing ST-Developer
 * from STEP Tools, Inc. (www.steptools.com) 
 */
/* OPTION: using custom schema-name function */

FILE_DESCRIPTION(
/* description */ ('3-D model version:1'),
/* implementation_level */ '2;1');

FILE_NAME(
/* name */ '328-044B25-13M',
/* time_stamp */ '2016-03-24T11:27:07+01:00',
/* author */ ('InteractiveCad'),
/* organization */ ('AB Sandvik Coromant'),
/* preprocessor_version */ 'ST-DEVELOPER v15',
/* originating_system */ 'SIEMENS PLM Software NX 8.5',
/* authorisation */ '');

FILE_SCHEMA (('AP203_CONFIGURATION_CONTROLLED_3D_DESIGN_OF_MECHANICAL_PARTS_AND_ASSEMBLIES_MIM_LF { 1 0 10303 403 2 1 2}'));
ENDSEC;

DATA;
#10=SHAPE_REPRESENTATION_RELATIONSHIP('None',
'relationship between 328_044B25_13M_SIM-None and 328_044B25_13M_SIM-N
one',#92,#11);
#11=ADVANCED_BREP_SHAPE_REPRESENTATION('328_044B25_13M_SIM-None',(#110,
#111),#389);
#12=CC_DESIGN_APPROVAL(#24,(#82));
#13=CC_DESIGN_APPROVAL(#25,(#84));
#14=CC_DESIGN_APPROVAL(#26,(#31));
#15=APPROVAL_PERSON_ORGANIZATION(#69,#24,#18);
#16=APPROVAL_PERSON_ORGANIZATION(#70,#25,#19);
#17=APPROVAL_PERSON_ORGANIZATION(#71,#26,#20);
#18=APPROVAL_ROLE('approver');
#19=APPROVAL_ROLE('approver');
#20=APPROVAL_ROLE('approver');
#21=APPROVAL_DATE_TIME(#39,#24);
#22=APPROVAL_DATE_TIME(#40,#25);
#23=APPROVAL_DATE_TIME(#41,#26);
#24=APPROVAL(#27,' ');
#25=APPROVAL(#28,' ');
#26=APPROVAL(#29,' ');
#27=APPROVAL_STATUS('not_yet_approved');
#28=APPROVAL_STATUS('not_yet_approved');
#29=APPROVAL_STATUS('not_yet_approved');
#30=CC_DESIGN_SECURITY_CLASSIFICATION(#31,(#84));
#31=SECURITY_CLASSIFICATION(' ',' ',#32);
#32=SECURITY_CLASSIFICATION_LEVEL('confidential');
#33=CC_DESIGN_DATE_AND_TIME_ASSIGNMENT(#37,#35,(#82));
#34=CC_DESIGN_DATE_AND_TIME_ASSIGNMENT(#38,#36,(#31));
#35=DATE_TIME_ROLE('creation_date');
#36=DATE_TIME_ROLE('classification_date');
#37=DATE_AND_TIME(#52,#42);
#38=DATE_AND_TIME(#53,#43);
#39=DATE_AND_TIME(#54,#44);
#40=DATE_AND_TIME(#55,#45);
#41=DATE_AND_TIME(#56,#46);
#42=LOCAL_TIME(0,0,0.,#47);
#43=LOCAL_TIME(0,0,0.,#48);
#44=LOCAL_TIME(0,0,0.,#49);
#45=LOCAL_TIME(0,0,0.,#50);
#46=LOCAL_TIME(0,0,0.,#51);
#47=COORDINATED_UNIVERSAL_TIME_OFFSET(0,0,.BEHIND.);
#48=COORDINATED_UNIVERSAL_TIME_OFFSET(0,0,.BEHIND.);
#49=COORDINATED_UNIVERSAL_TIME_OFFSET(0,0,.BEHIND.);
#50=COORDINATED_UNIVERSAL_TIME_OFFSET(0,0,.BEHIND.);
#51=COORDINATED_UNIVERSAL_TIME_OFFSET(0,0,.BEHIND.);
#52=CALENDAR_DATE(0,1,1);
#53=CALENDAR_DATE(0,1,1);
#54=CALENDAR_DATE(0,1,1);
#55=CALENDAR_DATE(0,1,1);
#56=CALENDAR_DATE(0,1,1);
#57=CC_DESIGN_PERSON_AND_ORGANIZATION_ASSIGNMENT(#65,#61,(#82,#84));
#58=CC_DESIGN_PERSON_AND_ORGANIZATION_ASSIGNMENT(#66,#62,(#86));
#59=CC_DESIGN_PERSON_AND_ORGANIZATION_ASSIGNMENT(#67,#63,(#84));
#60=CC_DESIGN_PERSON_AND_ORGANIZATION_ASSIGNMENT(#68,#64,(#31));
#61=PERSON_AND_ORGANIZATION_ROLE('creator');
#62=PERSON_AND_ORGANIZATION_ROLE('design_owner');
#63=PERSON_AND_ORGANIZATION_ROLE('design_supplier');
#64=PERSON_AND_ORGANIZATION_ROLE('classification_officer');
#65=PERSON_AND_ORGANIZATION(#79,#72);
#66=PERSON_AND_ORGANIZATION(#79,#73);
#67=PERSON_AND_ORGANIZATION(#79,#74);
#68=PERSON_AND_ORGANIZATION(#79,#75);
#69=PERSON_AND_ORGANIZATION(#79,#76);
#70=PERSON_AND_ORGANIZATION(#79,#77);
#71=PERSON_AND_ORGANIZATION(#79,#78);
#72=ORGANIZATION(' ',' ',' ');
#73=ORGANIZATION(' ',' ',' ');
#74=ORGANIZATION(' ',' ',' ');
#75=ORGANIZATION(' ',' ',' ');
#76=ORGANIZATION(' ',' ',' ');
#77=ORGANIZATION(' ',' ',' ');
#78=ORGANIZATION(' ',' ',' ');
#79=PERSON(' ',' ',' ',(' '),$,$);
#80=SHAPE_DEFINITION_REPRESENTATION(#81,#92);
#81=PRODUCT_DEFINITION_SHAPE('','',#82);
#82=PRODUCT_DEFINITION(' ','',#84,#83);
#83=DESIGN_CONTEXT('',#91,'design');
#84=PRODUCT_DEFINITION_FORMATION_WITH_SPECIFIED_SOURCE(' ',' ',#86,
 .NOT_KNOWN.);
#85=PRODUCT_RELATED_PRODUCT_CATEGORY('detail','',(#86));
#86=PRODUCT('328_044B25_13M_SIM','328_044B25_13M_SIM',' ',(#89));
#87=PRODUCT_CATEGORY('part',' ');
#88=PRODUCT_CATEGORY(' ','');
#89=MECHANICAL_CONTEXT(' ',#91,'mechanical');
#90=APPLICATION_PROTOCOL_DEFINITION('international standard',
'config_control_design',2010,#91);
#91=APPLICATION_CONTEXT(
'configuration controlled 3D designs of mechanical parts and assemblie
s');
#92=SHAPE_REPRESENTATION('328_044B25_13M_SIM-None',(#248),#389);
#93=PRESENTATION_LAYER_ASSIGNMENT('1','Layer 1',(#110,#111));
#94=STYLED_ITEM('',(#96),#110);
#95=STYLED_ITEM('',(#97),#111);
#96=PRESENTATION_STYLE_ASSIGNMENT((#98));
#97=PRESENTATION_STYLE_ASSIGNMENT((#99));
#98=SURFACE_STYLE_USAGE(.BOTH.,#100);
#99=SURFACE_STYLE_USAGE(.BOTH.,#101);
#100=SURFACE_SIDE_STYLE('',(#102));
#101=SURFACE_SIDE_STYLE('',(#103));
#102=SURFACE_STYLE_FILL_AREA(#104);
#103=SURFACE_STYLE_FILL_AREA(#105);
#104=FILL_AREA_STYLE('',(#106));
#105=FILL_AREA_STYLE('',(#107));
#106=FILL_AREA_STYLE_COLOUR('',#108);
#107=FILL_AREA_STYLE_COLOUR('',#109);
#108=COLOUR_RGB('TLS_NOCUT',0.499992370489052,0.499992370489052,0.499992370489052);
#109=COLOUR_RGB('TLS_CUT',0.8,0.8,0.8);
#110=MANIFOLD_SOLID_BREP('',#112);
#111=MANIFOLD_SOLID_BREP('',#113);
#112=CLOSED_SHELL('',(#124,#125,#126,#127,#128,#129,#130,#131,#132));
#113=CLOSED_SHELL('',(#133,#134,#135,#136));
#114=TOROIDAL_SURFACE('',#264,12.9999999999998,0.5);
#115=(
BOUNDED_SURFACE()
B_SPLINE_SURFACE(3,3,((#347,#348,#349,#350,#351,#352,#353),(#354,#355,#356,
#357,#358,#359,#360),(#361,#362,#363,#364,#365,#366,#367),(#368,#369,#370,
#371,#372,#373,#374)),.UNSPECIFIED.,.F.,.T.,.F.)
B_SPLINE_SURFACE_WITH_KNOTS((4,4),(1,3,3,3,1),(0.,1.),(-0.5,0.,0.5,1.,1.5),
 .UNSPECIFIED.)
GEOMETRIC_REPRESENTATION_ITEM()
RATIONAL_B_SPLINE_SURFACE(((1.,0.333333333333333,0.333333333333333,1.,0.333333333333333,
0.333333333333333,1.),(0.949716587009304,0.316572195669768,0.316572195669768,
0.949716587009304,0.316572195669768,0.316572195669768,0.949716587009304),
(0.949716587009304,0.316572195669768,0.316572195669768,0.949716587009304,
0.316572195669768,0.316572195669768,0.949716587009304),(1.,0.333333333333333,
0.333333333333333,1.,0.333333333333333,0.333333333333333,1.)))
REPRESENTATION_ITEM('')
SURFACE()
);
#116=PLANE('',#254);
#117=PLANE('',#256);
#118=PLANE('',#260);
#119=PLANE('',#267);
#120=PLANE('',#271);
#121=FACE_OUTER_BOUND('',#168,.T.);
#122=FACE_OUTER_BOUND('',#169,.T.);
#123=CONICAL_SURFACE('',#253,12.5,45.);
#124=ADVANCED_FACE('',(#142,#143),#137,.T.);
#125=ADVANCED_FACE('',(#144,#145),#123,.T.);
#126=ADVANCED_FACE('',(#121),#116,.F.);
#127=ADVANCED_FACE('',(#122),#117,.F.);
#128=ADVANCED_FACE('',(#146,#147),#138,.T.);
#129=ADVANCED_FACE('',(#148,#149),#118,.F.);
#130=ADVANCED_FACE('',(#150,#151),#139,.T.);
#131=ADVANCED_FACE('',(#152,#153),#115,.T.);
#132=ADVANCED_FACE('',(#154,#155),#114,.F.);
#133=ADVANCED_FACE('',(#156,#157),#119,.T.);
#134=ADVANCED_FACE('',(#158,#159),#140,.T.);
#135=ADVANCED_FACE('',(#160,#161),#120,.T.);
#136=ADVANCED_FACE('',(#162,#163),#141,.F.);
#137=CYLINDRICAL_SURFACE('',#251,12.5);
#138=CYLINDRICAL_SURFACE('',#258,18.0758590228407);
#139=CYLINDRICAL_SURFACE('',#262,16.9999999999993);
#140=CYLINDRICAL_SURFACE('',#269,22.);
#141=CYLINDRICAL_SURFACE('',#272,18.);
#142=FACE_BOUND('',#164,.T.);
#143=FACE_BOUND('',#165,.T.);
#144=FACE_BOUND('',#166,.T.);
#145=FACE_BOUND('',#167,.T.);
#146=FACE_BOUND('',#170,.T.);
#147=FACE_BOUND('',#171,.T.);
#148=FACE_BOUND('',#172,.T.);
#149=FACE_BOUND('',#173,.T.);
#150=FACE_BOUND('',#174,.T.);
#151=FACE_BOUND('',#175,.T.);
#152=FACE_BOUND('',#176,.T.);
#153=FACE_BOUND('',#177,.T.);
#154=FACE_BOUND('',#178,.T.);
#155=FACE_BOUND('',#179,.T.);
#156=FACE_BOUND('',#180,.T.);
#157=FACE_BOUND('',#181,.T.);
#158=FACE_BOUND('',#182,.T.);
#159=FACE_BOUND('',#183,.T.);
#160=FACE_BOUND('',#184,.T.);
#161=FACE_BOUND('',#185,.T.);
#162=FACE_BOUND('',#186,.T.);
#163=FACE_BOUND('',#187,.T.);
#164=EDGE_LOOP('',(#188));
#165=EDGE_LOOP('',(#189));
#166=EDGE_LOOP('',(#190));
#167=EDGE_LOOP('',(#191));
#168=EDGE_LOOP('',(#192));
#169=EDGE_LOOP('',(#193));
#170=EDGE_LOOP('',(#194));
#171=EDGE_LOOP('',(#195));
#172=EDGE_LOOP('',(#196));
#173=EDGE_LOOP('',(#197));
#174=EDGE_LOOP('',(#198));
#175=EDGE_LOOP('',(#199));
#176=EDGE_LOOP('',(#200));
#177=EDGE_LOOP('',(#201));
#178=EDGE_LOOP('',(#202));
#179=EDGE_LOOP('',(#203));
#180=EDGE_LOOP('',(#204));
#181=EDGE_LOOP('',(#205));
#182=EDGE_LOOP('',(#206));
#183=EDGE_LOOP('',(#207));
#184=EDGE_LOOP('',(#208));
#185=EDGE_LOOP('',(#209));
#186=EDGE_LOOP('',(#210));
#187=EDGE_LOOP('',(#211));
#188=ORIENTED_EDGE('',*,*,#224,.F.);
#189=ORIENTED_EDGE('',*,*,#225,.T.);
#190=ORIENTED_EDGE('',*,*,#226,.F.);
#191=ORIENTED_EDGE('',*,*,#224,.T.);
#192=ORIENTED_EDGE('',*,*,#226,.T.);
#193=ORIENTED_EDGE('',*,*,#227,.F.);
#194=ORIENTED_EDGE('',*,*,#228,.F.);
#195=ORIENTED_EDGE('',*,*,#227,.T.);
#196=ORIENTED_EDGE('',*,*,#229,.F.);
#197=ORIENTED_EDGE('',*,*,#228,.T.);
#198=ORIENTED_EDGE('',*,*,#230,.F.);
#199=ORIENTED_EDGE('',*,*,#229,.T.);
#200=ORIENTED_EDGE('',*,*,#231,.F.);
#201=ORIENTED_EDGE('',*,*,#230,.T.);
#202=ORIENTED_EDGE('',*,*,#225,.F.);
#203=ORIENTED_EDGE('',*,*,#231,.T.);
#204=ORIENTED_EDGE('',*,*,#232,.T.);
#205=ORIENTED_EDGE('',*,*,#233,.F.);
#206=ORIENTED_EDGE('',*,*,#234,.T.);
#207=ORIENTED_EDGE('',*,*,#232,.F.);
#208=ORIENTED_EDGE('',*,*,#235,.T.);
#209=ORIENTED_EDGE('',*,*,#234,.F.);
#210=ORIENTED_EDGE('',*,*,#233,.T.);
#211=ORIENTED_EDGE('',*,*,#235,.F.);
#212=VERTEX_POINT('',#325);
#213=VERTEX_POINT('',#327);
#214=VERTEX_POINT('',#330);
#215=VERTEX_POINT('',#334);
#216=VERTEX_POINT('',#337);
#217=VERTEX_POINT('',#340);
#218=VERTEX_POINT('',#343);
#219=VERTEX_POINT('',#346);
#220=VERTEX_POINT('',#377);
#221=VERTEX_POINT('',#379);
#222=VERTEX_POINT('',#382);
#223=VERTEX_POINT('',#385);
#224=EDGE_CURVE('',#212,#212,#236,.T.);
#225=EDGE_CURVE('',#213,#213,#237,.T.);
#226=EDGE_CURVE('',#214,#214,#238,.T.);
#227=EDGE_CURVE('',#215,#215,#239,.T.);
#228=EDGE_CURVE('',#216,#216,#240,.T.);
#229=EDGE_CURVE('',#217,#217,#241,.T.);
#230=EDGE_CURVE('',#218,#218,#242,.T.);
#231=EDGE_CURVE('',#219,#219,#243,.T.);
#232=EDGE_CURVE('',#220,#220,#244,.T.);
#233=EDGE_CURVE('',#221,#221,#245,.T.);
#234=EDGE_CURVE('',#222,#222,#246,.T.);
#235=EDGE_CURVE('',#223,#223,#247,.T.);
#236=CIRCLE('',#249,12.5);
#237=CIRCLE('',#250,12.4999999999998);
#238=CIRCLE('',#252,11.5);
#239=CIRCLE('',#255,18.0758590228407);
#240=CIRCLE('',#257,18.0758590228407);
#241=CIRCLE('',#259,16.999999999999);
#242=CIRCLE('',#261,16.9999999999994);
#243=CIRCLE('',#263,12.6451612903224);
#244=CIRCLE('',#265,22.);
#245=CIRCLE('',#266,18.);
#246=CIRCLE('',#268,22.);
#247=CIRCLE('',#270,18.);
#248=AXIS2_PLACEMENT_3D('',#323,#273,#274);
#249=AXIS2_PLACEMENT_3D('',#324,#275,#276);
#250=AXIS2_PLACEMENT_3D('',#326,#277,#278);
#251=AXIS2_PLACEMENT_3D('',#328,#279,#280);
#252=AXIS2_PLACEMENT_3D('',#329,#281,#282);
#253=AXIS2_PLACEMENT_3D('',#331,#283,#284);
#254=AXIS2_PLACEMENT_3D('',#332,#285,#286);
#255=AXIS2_PLACEMENT_3D('',#333,#287,#288);
#256=AXIS2_PLACEMENT_3D('',#335,#289,#290);
#257=AXIS2_PLACEMENT_3D('',#336,#291,#292);
#258=AXIS2_PLACEMENT_3D('',#338,#293,#294);
#259=AXIS2_PLACEMENT_3D('',#339,#295,#296);
#260=AXIS2_PLACEMENT_3D('',#341,#297,#298);
#261=AXIS2_PLACEMENT_3D('',#342,#299,#300);
#262=AXIS2_PLACEMENT_3D('',#344,#301,#302);
#263=AXIS2_PLACEMENT_3D('',#345,#303,#304);
#264=AXIS2_PLACEMENT_3D('',#375,#305,#306);
#265=AXIS2_PLACEMENT_3D('',#376,#307,#308);
#266=AXIS2_PLACEMENT_3D('',#378,#309,#310);
#267=AXIS2_PLACEMENT_3D('',#380,#311,#312);
#268=AXIS2_PLACEMENT_3D('',#381,#313,#314);
#269=AXIS2_PLACEMENT_3D('',#383,#315,#316);
#270=AXIS2_PLACEMENT_3D('',#384,#317,#318);
#271=AXIS2_PLACEMENT_3D('',#386,#319,#320);
#272=AXIS2_PLACEMENT_3D('',#387,#321,#322);
#273=DIRECTION('',(0.,0.,1.));
#274=DIRECTION('',(1.,0.,0.));
#275=DIRECTION('',(0.,0.,1.));
#276=DIRECTION('',(1.,0.,0.));
#277=DIRECTION('',(0.,0.,1.));
#278=DIRECTION('',(1.,0.,0.));
#279=DIRECTION('',(0.,0.,1.));
#280=DIRECTION('',(1.,0.,0.));
#281=DIRECTION('',(0.,0.,1.));
#282=DIRECTION('',(1.,0.,0.));
#283=DIRECTION('',(0.,0.,-1.));
#284=DIRECTION('',(-1.,0.,0.));
#285=DIRECTION('',(0.,0.,-1.));
#286=DIRECTION('',(-1.,0.,0.));
#287=DIRECTION('',(0.,0.,1.));
#288=DIRECTION('',(1.,0.,0.));
#289=DIRECTION('',(0.,0.,1.));
#290=DIRECTION('',(1.,0.,0.));
#291=DIRECTION('',(0.,0.,1.));
#292=DIRECTION('',(1.,0.,0.));
#293=DIRECTION('',(0.,0.,1.));
#294=DIRECTION('',(1.,0.,0.));
#295=DIRECTION('',(0.,0.,1.));
#296=DIRECTION('',(1.,0.,0.));
#297=DIRECTION('',(0.,0.,-1.));
#298=DIRECTION('',(-1.,0.,0.));
#299=DIRECTION('',(0.,0.,1.));
#300=DIRECTION('',(1.,0.,0.));
#301=DIRECTION('',(0.,0.,1.));
#302=DIRECTION('',(1.,0.,0.));
#303=DIRECTION('',(0.,0.,1.));
#304=DIRECTION('',(1.,0.,0.));
#305=DIRECTION('',(0.,0.,1.));
#306=DIRECTION('',(1.,0.,0.));
#307=DIRECTION('',(0.,0.,-1.));
#308=DIRECTION('',(-1.,0.,0.));
#309=DIRECTION('',(0.,0.,-1.));
#310=DIRECTION('',(-1.,0.,0.));
#311=DIRECTION('',(0.,0.,-1.));
#312=DIRECTION('',(-1.,0.,0.));
#313=DIRECTION('',(0.,0.,-1.));
#314=DIRECTION('',(-1.,0.,0.));
#315=DIRECTION('',(0.,0.,-1.));
#316=DIRECTION('',(-1.,0.,0.));
#317=DIRECTION('',(0.,0.,-1.));
#318=DIRECTION('',(-1.,0.,0.));
#319=DIRECTION('',(0.,0.,1.));
#320=DIRECTION('',(1.,0.,0.));
#321=DIRECTION('',(0.,0.,-1.));
#322=DIRECTION('',(-1.,0.,0.));
#323=CARTESIAN_POINT('',(0.,0.,0.));
#324=CARTESIAN_POINT('',(0.,3.80708797820262E-010,-0.999999999668599));
#325=CARTESIAN_POINT('',(12.5,3.80708797820262E-010,-0.999999999668599));
#326=CARTESIAN_POINT('',(0.,3.80708797820262E-010,-101.791977808562));
#327=CARTESIAN_POINT('',(12.4999999999998,3.80708797820262E-010,-101.791977808562));
#328=CARTESIAN_POINT('',(0.,3.80708797820262E-010,-56.9999999996686));
#329=CARTESIAN_POINT('',(0.,3.80708797820262E-010,3.31401572850609E-010));
#330=CARTESIAN_POINT('',(11.5,3.80708797820262E-010,3.31401572850609E-010));
#331=CARTESIAN_POINT('',(0.,3.80708797820262E-010,-0.999999999668599));
#332=CARTESIAN_POINT('',(0.,11.5000000003807,3.31401572850609E-010));
#333=CARTESIAN_POINT('',(0.,3.80708797820262E-010,-124.999999999669));
#334=CARTESIAN_POINT('',(18.0758590228407,3.80708797820262E-010,-124.999999999669));
#335=CARTESIAN_POINT('',(0.,3.80708641695149E-010,-124.999999999669));
#336=CARTESIAN_POINT('',(0.,3.80708797820262E-010,-123.699999999669));
#337=CARTESIAN_POINT('',(18.0758590228407,3.80708797820262E-010,-123.699999999669));
#338=CARTESIAN_POINT('',(0.,3.80708797820262E-010,-56.9999999996686));
#339=CARTESIAN_POINT('',(0.,3.80708797820262E-010,-123.699999999669));
#340=CARTESIAN_POINT('',(16.999999999999,3.80708797820262E-010,-123.699999999669));
#341=CARTESIAN_POINT('',(0.,18.0758590232214,-123.699999999669));
#342=CARTESIAN_POINT('',(0.,3.80708797820262E-010,-112.712142642483));
#343=CARTESIAN_POINT('',(16.9999999999994,3.80708797820262E-010,-112.712142642483));
#344=CARTESIAN_POINT('',(0.,3.80708797820262E-010,-56.9999999996686));
#345=CARTESIAN_POINT('',(0.,3.80708797820262E-010,-102.144241190301));
#346=CARTESIAN_POINT('',(12.6451612903224,3.80708797820262E-010,-102.144241190301));
#347=CARTESIAN_POINT('',(12.6451612903224,3.80708919250905E-010,-102.144241190301));
#348=CARTESIAN_POINT('',(12.6451612903224,25.2903225810254,-102.144241190301));
#349=CARTESIAN_POINT('',(-12.6451612903224,25.2903225810254,-102.144241190301));
#350=CARTESIAN_POINT('',(-12.6451612903224,3.80708919250905E-010,-102.144241190301));
#351=CARTESIAN_POINT('',(-12.6451612903224,-25.290322580264,-102.144241190301));
#352=CARTESIAN_POINT('',(12.6451612903224,-25.290322580264,-102.144241190301));
#353=CARTESIAN_POINT('',(12.6451612903224,3.80708919250905E-010,-102.144241190301));
#354=CARTESIAN_POINT('',(15.4715304301495,3.80708919250905E-010,-104.99127335611));
#355=CARTESIAN_POINT('',(15.4715304301495,30.9430608606798,-104.99127335611));
#356=CARTESIAN_POINT('',(-15.4715304301495,30.9430608606798,-104.99127335611));
#357=CARTESIAN_POINT('',(-15.4715304301495,3.80708919250905E-010,-104.99127335611));
#358=CARTESIAN_POINT('',(-15.4715304301495,-30.9430608599184,-104.99127335611));
#359=CARTESIAN_POINT('',(15.4715304301495,-30.9430608599184,-104.99127335611));
#360=CARTESIAN_POINT('',(15.4715304301495,3.80708919250905E-010,-104.99127335611));
#361=CARTESIAN_POINT('',(16.9999999999997,3.80708919250905E-010,-108.700415499753));
#362=CARTESIAN_POINT('',(16.9999999999997,34.0000000003801,-108.700415499753));
#363=CARTESIAN_POINT('',(-16.9999999999997,34.0000000003801,-108.700415499753));
#364=CARTESIAN_POINT('',(-16.9999999999997,3.80708919250905E-010,-108.700415499753));
#365=CARTESIAN_POINT('',(-16.9999999999997,-33.9999999996187,-108.700415499753));
#366=CARTESIAN_POINT('',(16.9999999999997,-33.9999999996187,-108.700415499753));
#367=CARTESIAN_POINT('',(16.9999999999997,3.80708919250905E-010,-108.700415499753));
#368=CARTESIAN_POINT('',(16.9999999999994,3.80708919250905E-010,-112.712142642483));
#369=CARTESIAN_POINT('',(16.9999999999994,34.0000000003796,-112.712142642483));
#370=CARTESIAN_POINT('',(-16.9999999999994,34.0000000003796,-112.712142642483));
#371=CARTESIAN_POINT('',(-16.9999999999994,3.80708919250905E-010,-112.712142642483));
#372=CARTESIAN_POINT('',(-16.9999999999994,-33.9999999996182,-112.712142642483));
#373=CARTESIAN_POINT('',(16.9999999999994,-33.9999999996182,-112.712142642483));
#374=CARTESIAN_POINT('',(16.9999999999994,3.80708919250905E-010,-112.712142642483));
#375=CARTESIAN_POINT('',(0.,3.80709352931774E-010,-101.791977808562));
#376=CARTESIAN_POINT('',(0.,0.,-125.));
#377=CARTESIAN_POINT('',(-22.,0.,-125.));
#378=CARTESIAN_POINT('',(0.,0.,-125.));
#379=CARTESIAN_POINT('',(-18.,0.,-125.));
#380=CARTESIAN_POINT('',(18.,0.,-125.));
#381=CARTESIAN_POINT('',(0.,0.,-123.7));
#382=CARTESIAN_POINT('',(-22.,0.,-123.7));
#383=CARTESIAN_POINT('',(0.,0.,0.));
#384=CARTESIAN_POINT('',(0.,0.,-123.7));
#385=CARTESIAN_POINT('',(-18.,0.,-123.7));
#386=CARTESIAN_POINT('',(22.,0.,-123.7));
#387=CARTESIAN_POINT('',(0.,0.,0.));
#388=MECHANICAL_DESIGN_GEOMETRIC_PRESENTATION_REPRESENTATION('',(#94,#95),
#389);
#389=(
GEOMETRIC_REPRESENTATION_CONTEXT(3)
GLOBAL_UNCERTAINTY_ASSIGNED_CONTEXT((#390))
GLOBAL_UNIT_ASSIGNED_CONTEXT((#396,#392,#391))
REPRESENTATION_CONTEXT('328_044B25_13M_SIM','TOP_LEVEL_ASSEMBLY_PART')
);
#390=UNCERTAINTY_MEASURE_WITH_UNIT(LENGTH_MEASURE(0.0254),#396,
'DISTANCE_ACCURACY_VALUE','Maximum Tolerance applied to model');
#391=(
NAMED_UNIT(*)
SI_UNIT($,.STERADIAN.)
SOLID_ANGLE_UNIT()
);
#392=(
CONVERSION_BASED_UNIT('DEGREE',#394)
NAMED_UNIT(#393)
PLANE_ANGLE_UNIT()
);
#393=DIMENSIONAL_EXPONENTS(0.,0.,0.,0.,0.,0.,0.);
#394=PLANE_ANGLE_MEASURE_WITH_UNIT(PLANE_ANGLE_MEASURE(0.0174532925),#395);
#395=(
NAMED_UNIT(*)
PLANE_ANGLE_UNIT()
SI_UNIT($,.RADIAN.)
);
#396=(
LENGTH_UNIT()
NAMED_UNIT(*)
SI_UNIT(.MILLI.,.METRE.)
);
ENDSEC;
END-ISO-10303-21;
