ISO-10303-21;
HEADER;
/* Generated by software containing ST-Developer
 * from STEP Tools, Inc. (www.steptools.com) 
 */
/* OPTION: using custom schema-name function */

FILE_DESCRIPTION(
/* description */ ('3-D model version:1'),
/* implementation_level */ '2;1');

FILE_NAME(
/* name */ '328-039B25-13M',
/* time_stamp */ '2016-03-24T11:27:01+01:00',
/* author */ ('InteractiveCad'),
/* organization */ ('AB Sandvik Coromant'),
/* preprocessor_version */ 'ST-DEVELOPER v15',
/* originating_system */ 'SIEMENS PLM Software NX 8.5',
/* authorisation */ '');

FILE_SCHEMA (('AP203_CONFIGURATION_CONTROLLED_3D_DESIGN_OF_MECHANICAL_PARTS_AND_ASSEMBLIES_MIM_LF { 1 0 10303 403 2 1 2}'));
ENDSEC;

DATA;
#10=SHAPE_REPRESENTATION_RELATIONSHIP('None',
'relationship between 328_039B25_13M_SIM-None and 328_039B25_13M_SIM-N
one',#92,#11);
#11=ADVANCED_BREP_SHAPE_REPRESENTATION('328_039B25_13M_SIM-None',(#110,
#111),#389);
#12=CC_DESIGN_APPROVAL(#24,(#82));
#13=CC_DESIGN_APPROVAL(#25,(#84));
#14=CC_DESIGN_APPROVAL(#26,(#31));
#15=APPROVAL_PERSON_ORGANIZATION(#69,#24,#18);
#16=APPROVAL_PERSON_ORGANIZATION(#70,#25,#19);
#17=APPROVAL_PERSON_ORGANIZATION(#71,#26,#20);
#18=APPROVAL_ROLE('approver');
#19=APPROVAL_ROLE('approver');
#20=APPROVAL_ROLE('approver');
#21=APPROVAL_DATE_TIME(#39,#24);
#22=APPROVAL_DATE_TIME(#40,#25);
#23=APPROVAL_DATE_TIME(#41,#26);
#24=APPROVAL(#27,' ');
#25=APPROVAL(#28,' ');
#26=APPROVAL(#29,' ');
#27=APPROVAL_STATUS('not_yet_approved');
#28=APPROVAL_STATUS('not_yet_approved');
#29=APPROVAL_STATUS('not_yet_approved');
#30=CC_DESIGN_SECURITY_CLASSIFICATION(#31,(#84));
#31=SECURITY_CLASSIFICATION(' ',' ',#32);
#32=SECURITY_CLASSIFICATION_LEVEL('confidential');
#33=CC_DESIGN_DATE_AND_TIME_ASSIGNMENT(#37,#35,(#82));
#34=CC_DESIGN_DATE_AND_TIME_ASSIGNMENT(#38,#36,(#31));
#35=DATE_TIME_ROLE('creation_date');
#36=DATE_TIME_ROLE('classification_date');
#37=DATE_AND_TIME(#52,#42);
#38=DATE_AND_TIME(#53,#43);
#39=DATE_AND_TIME(#54,#44);
#40=DATE_AND_TIME(#55,#45);
#41=DATE_AND_TIME(#56,#46);
#42=LOCAL_TIME(0,0,0.,#47);
#43=LOCAL_TIME(0,0,0.,#48);
#44=LOCAL_TIME(0,0,0.,#49);
#45=LOCAL_TIME(0,0,0.,#50);
#46=LOCAL_TIME(0,0,0.,#51);
#47=COORDINATED_UNIVERSAL_TIME_OFFSET(0,0,.BEHIND.);
#48=COORDINATED_UNIVERSAL_TIME_OFFSET(0,0,.BEHIND.);
#49=COORDINATED_UNIVERSAL_TIME_OFFSET(0,0,.BEHIND.);
#50=COORDINATED_UNIVERSAL_TIME_OFFSET(0,0,.BEHIND.);
#51=COORDINATED_UNIVERSAL_TIME_OFFSET(0,0,.BEHIND.);
#52=CALENDAR_DATE(0,1,1);
#53=CALENDAR_DATE(0,1,1);
#54=CALENDAR_DATE(0,1,1);
#55=CALENDAR_DATE(0,1,1);
#56=CALENDAR_DATE(0,1,1);
#57=CC_DESIGN_PERSON_AND_ORGANIZATION_ASSIGNMENT(#65,#61,(#82,#84));
#58=CC_DESIGN_PERSON_AND_ORGANIZATION_ASSIGNMENT(#66,#62,(#86));
#59=CC_DESIGN_PERSON_AND_ORGANIZATION_ASSIGNMENT(#67,#63,(#84));
#60=CC_DESIGN_PERSON_AND_ORGANIZATION_ASSIGNMENT(#68,#64,(#31));
#61=PERSON_AND_ORGANIZATION_ROLE('creator');
#62=PERSON_AND_ORGANIZATION_ROLE('design_owner');
#63=PERSON_AND_ORGANIZATION_ROLE('design_supplier');
#64=PERSON_AND_ORGANIZATION_ROLE('classification_officer');
#65=PERSON_AND_ORGANIZATION(#79,#72);
#66=PERSON_AND_ORGANIZATION(#79,#73);
#67=PERSON_AND_ORGANIZATION(#79,#74);
#68=PERSON_AND_ORGANIZATION(#79,#75);
#69=PERSON_AND_ORGANIZATION(#79,#76);
#70=PERSON_AND_ORGANIZATION(#79,#77);
#71=PERSON_AND_ORGANIZATION(#79,#78);
#72=ORGANIZATION(' ',' ',' ');
#73=ORGANIZATION(' ',' ',' ');
#74=ORGANIZATION(' ',' ',' ');
#75=ORGANIZATION(' ',' ',' ');
#76=ORGANIZATION(' ',' ',' ');
#77=ORGANIZATION(' ',' ',' ');
#78=ORGANIZATION(' ',' ',' ');
#79=PERSON(' ',' ',' ',(' '),$,$);
#80=SHAPE_DEFINITION_REPRESENTATION(#81,#92);
#81=PRODUCT_DEFINITION_SHAPE('','',#82);
#82=PRODUCT_DEFINITION(' ','',#84,#83);
#83=DESIGN_CONTEXT('',#91,'design');
#84=PRODUCT_DEFINITION_FORMATION_WITH_SPECIFIED_SOURCE(' ',' ',#86,
 .NOT_KNOWN.);
#85=PRODUCT_RELATED_PRODUCT_CATEGORY('detail','',(#86));
#86=PRODUCT('328_039B25_13M_SIM','328_039B25_13M_SIM',' ',(#89));
#87=PRODUCT_CATEGORY('part',' ');
#88=PRODUCT_CATEGORY(' ','');
#89=MECHANICAL_CONTEXT(' ',#91,'mechanical');
#90=APPLICATION_PROTOCOL_DEFINITION('international standard',
'config_control_design',2010,#91);
#91=APPLICATION_CONTEXT(
'configuration controlled 3D designs of mechanical parts and assemblie
s');
#92=SHAPE_REPRESENTATION('328_039B25_13M_SIM-None',(#248),#389);
#93=PRESENTATION_LAYER_ASSIGNMENT('1','Layer 1',(#110,#111));
#94=STYLED_ITEM('',(#96),#110);
#95=STYLED_ITEM('',(#97),#111);
#96=PRESENTATION_STYLE_ASSIGNMENT((#98));
#97=PRESENTATION_STYLE_ASSIGNMENT((#99));
#98=SURFACE_STYLE_USAGE(.BOTH.,#100);
#99=SURFACE_STYLE_USAGE(.BOTH.,#101);
#100=SURFACE_SIDE_STYLE('',(#102));
#101=SURFACE_SIDE_STYLE('',(#103));
#102=SURFACE_STYLE_FILL_AREA(#104);
#103=SURFACE_STYLE_FILL_AREA(#105);
#104=FILL_AREA_STYLE('',(#106));
#105=FILL_AREA_STYLE('',(#107));
#106=FILL_AREA_STYLE_COLOUR('',#108);
#107=FILL_AREA_STYLE_COLOUR('',#109);
#108=COLOUR_RGB('TLS_NOCUT',0.499992370489052,0.499992370489052,0.499992370489052);
#109=COLOUR_RGB('TLS_CUT',0.8,0.8,0.8);
#110=MANIFOLD_SOLID_BREP('',#112);
#111=MANIFOLD_SOLID_BREP('',#113);
#112=CLOSED_SHELL('',(#128,#129,#130,#131,#132,#133,#134,#135,#136));
#113=CLOSED_SHELL('',(#137,#138,#139,#140));
#114=PLANE('',#257);
#115=PLANE('',#259);
#116=PLANE('',#263);
#117=PLANE('',#267);
#118=PLANE('',#271);
#119=FACE_OUTER_BOUND('',#172,.T.);
#120=FACE_OUTER_BOUND('',#173,.T.);
#121=CONICAL_SURFACE('',#256,12.5000000000017,45.0000000001121);
#122=CYLINDRICAL_SURFACE('',#254,12.5000000000541);
#123=CYLINDRICAL_SURFACE('',#261,16.7500000002323);
#124=CYLINDRICAL_SURFACE('',#264,15.7500000002159);
#125=CYLINDRICAL_SURFACE('',#269,19.5);
#126=CYLINDRICAL_SURFACE('',#272,16.5);
#127=TOROIDAL_SURFACE('',#252,13.0000000001904,0.5);
#128=ADVANCED_FACE('',(#142,#143),#141,.T.);
#129=ADVANCED_FACE('',(#144,#145),#127,.F.);
#130=ADVANCED_FACE('',(#146,#147),#122,.T.);
#131=ADVANCED_FACE('',(#148,#149),#121,.T.);
#132=ADVANCED_FACE('',(#119),#114,.F.);
#133=ADVANCED_FACE('',(#120),#115,.F.);
#134=ADVANCED_FACE('',(#150,#151),#123,.T.);
#135=ADVANCED_FACE('',(#152,#153),#116,.F.);
#136=ADVANCED_FACE('',(#154,#155),#124,.T.);
#137=ADVANCED_FACE('',(#156,#157),#117,.T.);
#138=ADVANCED_FACE('',(#158,#159),#125,.T.);
#139=ADVANCED_FACE('',(#160,#161),#118,.T.);
#140=ADVANCED_FACE('',(#162,#163),#126,.F.);
#141=(
BOUNDED_SURFACE()
B_SPLINE_SURFACE(3,3,((#328,#329,#330,#331,#332,#333,#334),(#335,#336,#337,
#338,#339,#340,#341),(#342,#343,#344,#345,#346,#347,#348),(#349,#350,#351,
#352,#353,#354,#355)),.UNSPECIFIED.,.F.,.T.,.F.)
B_SPLINE_SURFACE_WITH_KNOTS((4,4),(1,3,3,3,1),(0.,1.),(-0.5,0.,0.5,1.,1.5),
 .UNSPECIFIED.)
GEOMETRIC_REPRESENTATION_ITEM()
RATIONAL_B_SPLINE_SURFACE(((1.,0.333333333333333,0.333333333333333,1.,0.333333333333333,
0.333333333333333,1.),(0.96408642477688,0.321362141592293,0.321362141592293,
0.96408642477688,0.321362141592293,0.321362141592293,0.96408642477688),
(0.96408642477688,0.321362141592293,0.321362141592293,0.96408642477688,
0.321362141592293,0.321362141592293,0.96408642477688),(1.,0.333333333333333,
0.333333333333333,1.,0.333333333333333,0.333333333333333,1.)))
REPRESENTATION_ITEM('')
SURFACE()
);
#142=FACE_BOUND('',#164,.T.);
#143=FACE_BOUND('',#165,.T.);
#144=FACE_BOUND('',#166,.T.);
#145=FACE_BOUND('',#167,.T.);
#146=FACE_BOUND('',#168,.T.);
#147=FACE_BOUND('',#169,.T.);
#148=FACE_BOUND('',#170,.T.);
#149=FACE_BOUND('',#171,.T.);
#150=FACE_BOUND('',#174,.T.);
#151=FACE_BOUND('',#175,.T.);
#152=FACE_BOUND('',#176,.T.);
#153=FACE_BOUND('',#177,.T.);
#154=FACE_BOUND('',#178,.T.);
#155=FACE_BOUND('',#179,.T.);
#156=FACE_BOUND('',#180,.T.);
#157=FACE_BOUND('',#181,.T.);
#158=FACE_BOUND('',#182,.T.);
#159=FACE_BOUND('',#183,.T.);
#160=FACE_BOUND('',#184,.T.);
#161=FACE_BOUND('',#185,.T.);
#162=FACE_BOUND('',#186,.T.);
#163=FACE_BOUND('',#187,.T.);
#164=EDGE_LOOP('',(#188));
#165=EDGE_LOOP('',(#189));
#166=EDGE_LOOP('',(#190));
#167=EDGE_LOOP('',(#191));
#168=EDGE_LOOP('',(#192));
#169=EDGE_LOOP('',(#193));
#170=EDGE_LOOP('',(#194));
#171=EDGE_LOOP('',(#195));
#172=EDGE_LOOP('',(#196));
#173=EDGE_LOOP('',(#197));
#174=EDGE_LOOP('',(#198));
#175=EDGE_LOOP('',(#199));
#176=EDGE_LOOP('',(#200));
#177=EDGE_LOOP('',(#201));
#178=EDGE_LOOP('',(#202));
#179=EDGE_LOOP('',(#203));
#180=EDGE_LOOP('',(#204));
#181=EDGE_LOOP('',(#205));
#182=EDGE_LOOP('',(#206));
#183=EDGE_LOOP('',(#207));
#184=EDGE_LOOP('',(#208));
#185=EDGE_LOOP('',(#209));
#186=EDGE_LOOP('',(#210));
#187=EDGE_LOOP('',(#211));
#188=ORIENTED_EDGE('',*,*,#224,.F.);
#189=ORIENTED_EDGE('',*,*,#225,.T.);
#190=ORIENTED_EDGE('',*,*,#226,.F.);
#191=ORIENTED_EDGE('',*,*,#224,.T.);
#192=ORIENTED_EDGE('',*,*,#227,.F.);
#193=ORIENTED_EDGE('',*,*,#226,.T.);
#194=ORIENTED_EDGE('',*,*,#228,.F.);
#195=ORIENTED_EDGE('',*,*,#227,.T.);
#196=ORIENTED_EDGE('',*,*,#228,.T.);
#197=ORIENTED_EDGE('',*,*,#229,.F.);
#198=ORIENTED_EDGE('',*,*,#230,.F.);
#199=ORIENTED_EDGE('',*,*,#229,.T.);
#200=ORIENTED_EDGE('',*,*,#231,.F.);
#201=ORIENTED_EDGE('',*,*,#230,.T.);
#202=ORIENTED_EDGE('',*,*,#225,.F.);
#203=ORIENTED_EDGE('',*,*,#231,.T.);
#204=ORIENTED_EDGE('',*,*,#232,.T.);
#205=ORIENTED_EDGE('',*,*,#233,.F.);
#206=ORIENTED_EDGE('',*,*,#234,.T.);
#207=ORIENTED_EDGE('',*,*,#232,.F.);
#208=ORIENTED_EDGE('',*,*,#235,.T.);
#209=ORIENTED_EDGE('',*,*,#234,.F.);
#210=ORIENTED_EDGE('',*,*,#233,.T.);
#211=ORIENTED_EDGE('',*,*,#235,.F.);
#212=VERTEX_POINT('',#325);
#213=VERTEX_POINT('',#327);
#214=VERTEX_POINT('',#357);
#215=VERTEX_POINT('',#360);
#216=VERTEX_POINT('',#363);
#217=VERTEX_POINT('',#367);
#218=VERTEX_POINT('',#370);
#219=VERTEX_POINT('',#373);
#220=VERTEX_POINT('',#377);
#221=VERTEX_POINT('',#379);
#222=VERTEX_POINT('',#382);
#223=VERTEX_POINT('',#385);
#224=EDGE_CURVE('',#212,#212,#236,.T.);
#225=EDGE_CURVE('',#213,#213,#237,.T.);
#226=EDGE_CURVE('',#214,#214,#238,.T.);
#227=EDGE_CURVE('',#215,#215,#239,.T.);
#228=EDGE_CURVE('',#216,#216,#240,.T.);
#229=EDGE_CURVE('',#217,#217,#241,.T.);
#230=EDGE_CURVE('',#218,#218,#242,.T.);
#231=EDGE_CURVE('',#219,#219,#243,.T.);
#232=EDGE_CURVE('',#220,#220,#244,.T.);
#233=EDGE_CURVE('',#221,#221,#245,.T.);
#234=EDGE_CURVE('',#222,#222,#246,.T.);
#235=EDGE_CURVE('',#223,#223,#247,.T.);
#236=CIRCLE('',#249,12.6048387098684);
#237=CIRCLE('',#250,15.7500000002082);
#238=CIRCLE('',#251,12.5000000001904);
#239=CIRCLE('',#253,12.5000000000017);
#240=CIRCLE('',#255,11.4999999999999);
#241=CIRCLE('',#258,16.7500000002335);
#242=CIRCLE('',#260,16.7500000002311);
#243=CIRCLE('',#262,15.7500000002311);
#244=CIRCLE('',#265,19.5);
#245=CIRCLE('',#266,16.5);
#246=CIRCLE('',#268,19.5);
#247=CIRCLE('',#270,16.5);
#248=AXIS2_PLACEMENT_3D('',#323,#273,#274);
#249=AXIS2_PLACEMENT_3D('',#324,#275,#276);
#250=AXIS2_PLACEMENT_3D('',#326,#277,#278);
#251=AXIS2_PLACEMENT_3D('',#356,#279,#280);
#252=AXIS2_PLACEMENT_3D('',#358,#281,#282);
#253=AXIS2_PLACEMENT_3D('',#359,#283,#284);
#254=AXIS2_PLACEMENT_3D('',#361,#285,#286);
#255=AXIS2_PLACEMENT_3D('',#362,#287,#288);
#256=AXIS2_PLACEMENT_3D('',#364,#289,#290);
#257=AXIS2_PLACEMENT_3D('',#365,#291,#292);
#258=AXIS2_PLACEMENT_3D('',#366,#293,#294);
#259=AXIS2_PLACEMENT_3D('',#368,#295,#296);
#260=AXIS2_PLACEMENT_3D('',#369,#297,#298);
#261=AXIS2_PLACEMENT_3D('',#371,#299,#300);
#262=AXIS2_PLACEMENT_3D('',#372,#301,#302);
#263=AXIS2_PLACEMENT_3D('',#374,#303,#304);
#264=AXIS2_PLACEMENT_3D('',#375,#305,#306);
#265=AXIS2_PLACEMENT_3D('',#376,#307,#308);
#266=AXIS2_PLACEMENT_3D('',#378,#309,#310);
#267=AXIS2_PLACEMENT_3D('',#380,#311,#312);
#268=AXIS2_PLACEMENT_3D('',#381,#313,#314);
#269=AXIS2_PLACEMENT_3D('',#383,#315,#316);
#270=AXIS2_PLACEMENT_3D('',#384,#317,#318);
#271=AXIS2_PLACEMENT_3D('',#386,#319,#320);
#272=AXIS2_PLACEMENT_3D('',#387,#321,#322);
#273=DIRECTION('',(0.,0.,1.));
#274=DIRECTION('',(1.,0.,0.));
#275=DIRECTION('',(0.,1.87372961590882E-012,1.));
#276=DIRECTION('',(0.,-1.,1.87388314857278E-012));
#277=DIRECTION('',(0.,1.87372961590882E-012,1.));
#278=DIRECTION('',(0.,-1.,1.87416220106865E-012));
#279=DIRECTION('',(0.,1.87372961590882E-012,1.));
#280=DIRECTION('',(0.,-1.,1.87405646553871E-012));
#281=DIRECTION('',(0.,1.87372961590882E-012,1.));
#282=DIRECTION('',(0.,-1.,1.87401534616955E-012));
#283=DIRECTION('',(0.,1.87372961590882E-012,1.));
#284=DIRECTION('',(0.,-1.,1.87372686810657E-012));
#285=DIRECTION('',(0.,1.87372961590882E-012,1.));
#286=DIRECTION('',(0.,-1.,1.87405646555916E-012));
#287=DIRECTION('',(0.,1.87372961590882E-012,1.));
#288=DIRECTION('',(0.,-1.,1.87372961590881E-012));
#289=DIRECTION('',(0.,-1.87372961590882E-012,-1.));
#290=DIRECTION('',(0.,1.,-1.87364869846147E-012));
#291=DIRECTION('',(0.,-1.87372961590882E-012,-1.));
#292=DIRECTION('',(0.,1.,-1.87372961590882E-012));
#293=DIRECTION('',(0.,1.87372961590882E-012,1.));
#294=DIRECTION('',(0.,-1.,1.87412274751276E-012));
#295=DIRECTION('',(0.,1.87372961590882E-012,1.));
#296=DIRECTION('',(0.,-1.,1.87372339865988E-012));
#297=DIRECTION('',(0.,1.87372961590882E-012,1.));
#298=DIRECTION('',(0.,-1.,1.87412274751303E-012));
#299=DIRECTION('',(0.,1.87372961590882E-012,1.));
#300=DIRECTION('',(0.,-1.,1.87412274751289E-012));
#301=DIRECTION('',(0.,1.87372961590882E-012,1.));
#302=DIRECTION('',(0.,-1.,1.87416220106592E-012));
#303=DIRECTION('',(0.,-1.87372961590882E-012,-1.));
#304=DIRECTION('',(0.,1.,-1.87372339865988E-012));
#305=DIRECTION('',(0.,1.87372961590882E-012,1.));
#306=DIRECTION('',(0.,-1.,1.87328107168312E-012));
#307=DIRECTION('',(0.,0.,-1.));
#308=DIRECTION('',(-1.,0.,0.));
#309=DIRECTION('',(0.,0.,-1.));
#310=DIRECTION('',(-1.,0.,0.));
#311=DIRECTION('',(0.,0.,-1.));
#312=DIRECTION('',(-1.,0.,0.));
#313=DIRECTION('',(0.,0.,-1.));
#314=DIRECTION('',(-1.,0.,0.));
#315=DIRECTION('',(0.,0.,-1.));
#316=DIRECTION('',(-1.,0.,0.));
#317=DIRECTION('',(0.,0.,-1.));
#318=DIRECTION('',(-1.,0.,0.));
#319=DIRECTION('',(0.,0.,1.));
#320=DIRECTION('',(1.,0.,0.));
#321=DIRECTION('',(0.,0.,-1.));
#322=DIRECTION('',(-1.,0.,0.));
#323=CARTESIAN_POINT('',(0.,0.,0.));
#324=CARTESIAN_POINT('',(0.,4.28453316725674E-011,-102.133663625631));
#325=CARTESIAN_POINT('',(0.,-12.6048387098256,-102.133663625607));
#326=CARTESIAN_POINT('',(0.,2.5625073576386E-011,-111.324028099765));
#327=CARTESIAN_POINT('',(0.,-15.7500000001825,-111.324028099735));
#328=CARTESIAN_POINT('',(0.,-12.6048387098256,-102.133663625607));
#329=CARTESIAN_POINT('',(25.2096774197368,-12.6048387098256,-102.133663625607));
#330=CARTESIAN_POINT('',(25.2096774197368,12.6048387099113,-102.133663625655));
#331=CARTESIAN_POINT('',(0.,12.6048387099113,-102.133663625655));
#332=CARTESIAN_POINT('',(-25.2096774197368,12.6048387099113,-102.133663625655));
#333=CARTESIAN_POINT('',(-25.2096774197368,-12.6048387098256,-102.133663625607));
#334=CARTESIAN_POINT('',(0.,-12.6048387098256,-102.133663625607));
#335=CARTESIAN_POINT('',(0.,-14.6625590095676,-104.787959038104));
#336=CARTESIAN_POINT('',(29.325118019211,-14.6625590095676,-104.787959038104));
#337=CARTESIAN_POINT('',(29.325118019211,14.6625590096434,-104.787959038159));
#338=CARTESIAN_POINT('',(0.,14.6625590096434,-104.787959038159));
#339=CARTESIAN_POINT('',(-29.325118019211,14.6625590096434,-104.787959038159));
#340=CARTESIAN_POINT('',(-29.325118019211,-14.6625590095676,-104.787959038104));
#341=CARTESIAN_POINT('',(0.,-14.6625590095676,-104.787959038104));
#342=CARTESIAN_POINT('',(0.,-15.75000000017,-107.965531863505));
#343=CARTESIAN_POINT('',(31.5000000004038,-15.75000000017,-107.965531863505));
#344=CARTESIAN_POINT('',(31.5000000004038,15.7500000002338,-107.965531863564));
#345=CARTESIAN_POINT('',(0.,15.7500000002338,-107.965531863564));
#346=CARTESIAN_POINT('',(-31.5000000004038,15.7500000002338,-107.965531863564));
#347=CARTESIAN_POINT('',(-31.5000000004038,-15.75000000017,-107.965531863505));
#348=CARTESIAN_POINT('',(0.,-15.75000000017,-107.965531863505));
#349=CARTESIAN_POINT('',(0.,-15.7500000001825,-111.324028099735));
#350=CARTESIAN_POINT('',(31.5000000004163,-15.7500000001825,-111.324028099735));
#351=CARTESIAN_POINT('',(31.5000000004163,15.7500000002338,-111.324028099795));
#352=CARTESIAN_POINT('',(0.,15.7500000002338,-111.324028099795));
#353=CARTESIAN_POINT('',(-31.5000000004163,15.7500000002338,-111.324028099795));
#354=CARTESIAN_POINT('',(-31.5000000004163,-15.7500000001825,-111.324028099735));
#355=CARTESIAN_POINT('',(0.,-15.7500000001825,-111.324028099735));
#356=CARTESIAN_POINT('',(0.,4.34193402757736E-011,-101.82731814316));
#357=CARTESIAN_POINT('',(0.,-12.500000000147,-101.827318143136));
#358=CARTESIAN_POINT('',(0.,4.34201286036995E-011,-101.827318143159));
#359=CARTESIAN_POINT('',(0.,2.32342472372737E-010,-1.0000000002853));
#360=CARTESIAN_POINT('',(0.,-12.4999999997694,-1.00000000026188));
#361=CARTESIAN_POINT('',(0.,0.,-125.000000000309));
#362=CARTESIAN_POINT('',(0.,2.34216201988642E-010,-2.87398577158982E-010));
#363=CARTESIAN_POINT('',(0.,-11.4999999997656,-2.6585068657603E-010));
#364=CARTESIAN_POINT('',(0.,2.32342472372737E-010,-1.0000000002853));
#365=CARTESIAN_POINT('',(0.,4.69041576005751,-3.13197384693709E-010));
#366=CARTESIAN_POINT('',(0.,5.87549433384732E-023,-125.000000000278));
#367=CARTESIAN_POINT('',(0.,-16.7500000002335,-125.000000000246));
#368=CARTESIAN_POINT('',(0.,15.7500000002335,-125.000000000308));
#369=CARTESIAN_POINT('',(0.,2.43584850074023E-012,-123.700000000278));
#370=CARTESIAN_POINT('',(0.,-16.7500000002287,-123.700000000246));
#371=CARTESIAN_POINT('',(0.,0.,-125.000000000309));
#372=CARTESIAN_POINT('',(0.,2.43584850073672E-012,-123.700000000279));
#373=CARTESIAN_POINT('',(0.,-15.7500000002287,-123.70000000025));
#374=CARTESIAN_POINT('',(0.,16.7500000002335,-123.70000000031));
#375=CARTESIAN_POINT('',(0.,0.,-125.000000000309));
#376=CARTESIAN_POINT('',(0.,0.,-125.));
#377=CARTESIAN_POINT('',(-19.5,0.,-125.));
#378=CARTESIAN_POINT('',(0.,0.,-125.));
#379=CARTESIAN_POINT('',(-16.5,0.,-125.));
#380=CARTESIAN_POINT('',(16.5,0.,-125.));
#381=CARTESIAN_POINT('',(0.,0.,-122.5));
#382=CARTESIAN_POINT('',(-19.5,0.,-122.5));
#383=CARTESIAN_POINT('',(0.,0.,0.));
#384=CARTESIAN_POINT('',(0.,0.,-122.5));
#385=CARTESIAN_POINT('',(-16.5,0.,-122.5));
#386=CARTESIAN_POINT('',(19.5,0.,-122.5));
#387=CARTESIAN_POINT('',(0.,0.,0.));
#388=MECHANICAL_DESIGN_GEOMETRIC_PRESENTATION_REPRESENTATION('',(#94,#95),
#389);
#389=(
GEOMETRIC_REPRESENTATION_CONTEXT(3)
GLOBAL_UNCERTAINTY_ASSIGNED_CONTEXT((#390))
GLOBAL_UNIT_ASSIGNED_CONTEXT((#396,#392,#391))
REPRESENTATION_CONTEXT('328_039B25_13M_SIM','TOP_LEVEL_ASSEMBLY_PART')
);
#390=UNCERTAINTY_MEASURE_WITH_UNIT(LENGTH_MEASURE(0.0254),#396,
'DISTANCE_ACCURACY_VALUE','Maximum Tolerance applied to model');
#391=(
NAMED_UNIT(*)
SI_UNIT($,.STERADIAN.)
SOLID_ANGLE_UNIT()
);
#392=(
CONVERSION_BASED_UNIT('DEGREE',#394)
NAMED_UNIT(#393)
PLANE_ANGLE_UNIT()
);
#393=DIMENSIONAL_EXPONENTS(0.,0.,0.,0.,0.,0.,0.);
#394=PLANE_ANGLE_MEASURE_WITH_UNIT(PLANE_ANGLE_MEASURE(0.0174532925),#395);
#395=(
NAMED_UNIT(*)
PLANE_ANGLE_UNIT()
SI_UNIT($,.RADIAN.)
);
#396=(
LENGTH_UNIT()
NAMED_UNIT(*)
SI_UNIT(.MILLI.,.METRE.)
);
ENDSEC;
END-ISO-10303-21;
