ISO-10303-21;
HEADER;
/* Generated by software containing ST-Developer
 * from STEP Tools, Inc. (www.steptools.com) 
 */
/* OPTION: using custom schema-name function */

FILE_DESCRIPTION(
/* description */ ('3-D model version:1'),
/* implementation_level */ '2;1');

FILE_NAME(
/* name */ '327R12-22 450MM-TH  1025',
/* time_stamp */ '2015-10-28T13:56:08+01:00',
/* author */ ('InteractiveCad'),
/* organization */ ('AB Sandvik Coromant'),
/* preprocessor_version */ 'ST-DEVELOPER v15',
/* originating_system */ 'SIEMENS PLM Software NX 8.5',
/* authorisation */ '');

FILE_SCHEMA (('AP203_CONFIGURATION_CONTROLLED_3D_DESIGN_OF_MECHANICAL_PARTS_AND_ASSEMBLIES_MIM_LF { 1 0 10303 403 2 1 2}'));
ENDSEC;

DATA;
#10=SHAPE_REPRESENTATION_RELATIONSHIP('None',
'relationship between 327R12_22_450MM_TH_SIM-None and 327R12_22_450MM_
TH_SIM-None',#92,#11);
#11=ADVANCED_BREP_SHAPE_REPRESENTATION('327R12_22_450MM_TH_SIM-None',(#110,
#111),#265);
#12=CC_DESIGN_APPROVAL(#24,(#82));
#13=CC_DESIGN_APPROVAL(#25,(#84));
#14=CC_DESIGN_APPROVAL(#26,(#31));
#15=APPROVAL_PERSON_ORGANIZATION(#69,#24,#18);
#16=APPROVAL_PERSON_ORGANIZATION(#70,#25,#19);
#17=APPROVAL_PERSON_ORGANIZATION(#71,#26,#20);
#18=APPROVAL_ROLE('approver');
#19=APPROVAL_ROLE('approver');
#20=APPROVAL_ROLE('approver');
#21=APPROVAL_DATE_TIME(#39,#24);
#22=APPROVAL_DATE_TIME(#40,#25);
#23=APPROVAL_DATE_TIME(#41,#26);
#24=APPROVAL(#27,' ');
#25=APPROVAL(#28,' ');
#26=APPROVAL(#29,' ');
#27=APPROVAL_STATUS('not_yet_approved');
#28=APPROVAL_STATUS('not_yet_approved');
#29=APPROVAL_STATUS('not_yet_approved');
#30=CC_DESIGN_SECURITY_CLASSIFICATION(#31,(#84));
#31=SECURITY_CLASSIFICATION(' ',' ',#32);
#32=SECURITY_CLASSIFICATION_LEVEL('confidential');
#33=CC_DESIGN_DATE_AND_TIME_ASSIGNMENT(#37,#35,(#82));
#34=CC_DESIGN_DATE_AND_TIME_ASSIGNMENT(#38,#36,(#31));
#35=DATE_TIME_ROLE('creation_date');
#36=DATE_TIME_ROLE('classification_date');
#37=DATE_AND_TIME(#52,#42);
#38=DATE_AND_TIME(#53,#43);
#39=DATE_AND_TIME(#54,#44);
#40=DATE_AND_TIME(#55,#45);
#41=DATE_AND_TIME(#56,#46);
#42=LOCAL_TIME(0,0,0.,#47);
#43=LOCAL_TIME(0,0,0.,#48);
#44=LOCAL_TIME(0,0,0.,#49);
#45=LOCAL_TIME(0,0,0.,#50);
#46=LOCAL_TIME(0,0,0.,#51);
#47=COORDINATED_UNIVERSAL_TIME_OFFSET(0,0,.BEHIND.);
#48=COORDINATED_UNIVERSAL_TIME_OFFSET(0,0,.BEHIND.);
#49=COORDINATED_UNIVERSAL_TIME_OFFSET(0,0,.BEHIND.);
#50=COORDINATED_UNIVERSAL_TIME_OFFSET(0,0,.BEHIND.);
#51=COORDINATED_UNIVERSAL_TIME_OFFSET(0,0,.BEHIND.);
#52=CALENDAR_DATE(0,1,1);
#53=CALENDAR_DATE(0,1,1);
#54=CALENDAR_DATE(0,1,1);
#55=CALENDAR_DATE(0,1,1);
#56=CALENDAR_DATE(0,1,1);
#57=CC_DESIGN_PERSON_AND_ORGANIZATION_ASSIGNMENT(#65,#61,(#82,#84));
#58=CC_DESIGN_PERSON_AND_ORGANIZATION_ASSIGNMENT(#66,#62,(#86));
#59=CC_DESIGN_PERSON_AND_ORGANIZATION_ASSIGNMENT(#67,#63,(#84));
#60=CC_DESIGN_PERSON_AND_ORGANIZATION_ASSIGNMENT(#68,#64,(#31));
#61=PERSON_AND_ORGANIZATION_ROLE('creator');
#62=PERSON_AND_ORGANIZATION_ROLE('design_owner');
#63=PERSON_AND_ORGANIZATION_ROLE('design_supplier');
#64=PERSON_AND_ORGANIZATION_ROLE('classification_officer');
#65=PERSON_AND_ORGANIZATION(#79,#72);
#66=PERSON_AND_ORGANIZATION(#79,#73);
#67=PERSON_AND_ORGANIZATION(#79,#74);
#68=PERSON_AND_ORGANIZATION(#79,#75);
#69=PERSON_AND_ORGANIZATION(#79,#76);
#70=PERSON_AND_ORGANIZATION(#79,#77);
#71=PERSON_AND_ORGANIZATION(#79,#78);
#72=ORGANIZATION(' ',' ',' ');
#73=ORGANIZATION(' ',' ',' ');
#74=ORGANIZATION(' ',' ',' ');
#75=ORGANIZATION(' ',' ',' ');
#76=ORGANIZATION(' ',' ',' ');
#77=ORGANIZATION(' ',' ',' ');
#78=ORGANIZATION(' ',' ',' ');
#79=PERSON(' ',' ',' ',(' '),$,$);
#80=SHAPE_DEFINITION_REPRESENTATION(#81,#92);
#81=PRODUCT_DEFINITION_SHAPE('','',#82);
#82=PRODUCT_DEFINITION(' ','',#84,#83);
#83=DESIGN_CONTEXT('',#91,'design');
#84=PRODUCT_DEFINITION_FORMATION_WITH_SPECIFIED_SOURCE(' ',' ',#86,
 .NOT_KNOWN.);
#85=PRODUCT_RELATED_PRODUCT_CATEGORY('detail','',(#86));
#86=PRODUCT('327R12_22_450MM_TH_SIM','327R12_22_450MM_TH_SIM',' ',(#89));
#87=PRODUCT_CATEGORY('part',' ');
#88=PRODUCT_CATEGORY(' ','');
#89=MECHANICAL_CONTEXT(' ',#91,'mechanical');
#90=APPLICATION_PROTOCOL_DEFINITION('international standard',
'config_control_design',2010,#91);
#91=APPLICATION_CONTEXT(
'configuration controlled 3D designs of mechanical parts and assemblie
s');
#92=SHAPE_REPRESENTATION('327R12_22_450MM_TH_SIM-None',(#193),#265);
#93=PRESENTATION_LAYER_ASSIGNMENT('1','Layer 1',(#110,#111));
#94=STYLED_ITEM('',(#96),#110);
#95=STYLED_ITEM('',(#97),#111);
#96=PRESENTATION_STYLE_ASSIGNMENT((#98));
#97=PRESENTATION_STYLE_ASSIGNMENT((#99));
#98=SURFACE_STYLE_USAGE(.BOTH.,#100);
#99=SURFACE_STYLE_USAGE(.BOTH.,#101);
#100=SURFACE_SIDE_STYLE('',(#102));
#101=SURFACE_SIDE_STYLE('',(#103));
#102=SURFACE_STYLE_FILL_AREA(#104);
#103=SURFACE_STYLE_FILL_AREA(#105);
#104=FILL_AREA_STYLE('',(#106));
#105=FILL_AREA_STYLE('',(#107));
#106=FILL_AREA_STYLE_COLOUR('',#108);
#107=FILL_AREA_STYLE_COLOUR('',#109);
#108=COLOUR_RGB('TLS_NOCUT',0.499992370489052,0.499992370489052,0.499992370489052);
#109=COLOUR_RGB('TLS_CUT',0.8,0.8,0.8);
#110=MANIFOLD_SOLID_BREP('',#112);
#111=MANIFOLD_SOLID_BREP('',#113);
#112=CLOSED_SHELL('',(#132,#133,#134,#135));
#113=CLOSED_SHELL('',(#136,#137,#138,#139));
#114=CYLINDRICAL_SURFACE('',#199,8.42);
#115=CYLINDRICAL_SURFACE('',#205,10.85);
#116=CYLINDRICAL_SURFACE('',#208,8.42);
#117=CONICAL_SURFACE('',#197,7.6110649898462,60.);
#118=CONICAL_SURFACE('',#203,7.6110649898462,60.);
#119=CONICAL_SURFACE('',#207,10.85,60.);
#120=FACE_BOUND('',#145,.T.);
#121=FACE_BOUND('',#146,.T.);
#122=FACE_BOUND('',#147,.T.);
#123=FACE_BOUND('',#148,.T.);
#124=FACE_BOUND('',#150,.T.);
#125=FACE_BOUND('',#151,.T.);
#126=FACE_BOUND('',#152,.T.);
#127=FACE_BOUND('',#153,.T.);
#128=FACE_BOUND('',#154,.T.);
#129=FACE_BOUND('',#155,.T.);
#130=FACE_BOUND('',#156,.T.);
#131=FACE_BOUND('',#157,.T.);
#132=ADVANCED_FACE('',(#142),#140,.T.);
#133=ADVANCED_FACE('',(#120,#121),#117,.T.);
#134=ADVANCED_FACE('',(#122,#123),#114,.T.);
#135=ADVANCED_FACE('',(#143),#141,.T.);
#136=ADVANCED_FACE('',(#124,#125),#118,.T.);
#137=ADVANCED_FACE('',(#126,#127),#115,.T.);
#138=ADVANCED_FACE('',(#128,#129),#119,.T.);
#139=ADVANCED_FACE('',(#130,#131),#116,.F.);
#140=PLANE('',#195);
#141=PLANE('',#200);
#142=FACE_OUTER_BOUND('',#144,.T.);
#143=FACE_OUTER_BOUND('',#149,.T.);
#144=EDGE_LOOP('',(#158));
#145=EDGE_LOOP('',(#159));
#146=EDGE_LOOP('',(#160));
#147=EDGE_LOOP('',(#161));
#148=EDGE_LOOP('',(#162));
#149=EDGE_LOOP('',(#163));
#150=EDGE_LOOP('',(#164));
#151=EDGE_LOOP('',(#165));
#152=EDGE_LOOP('',(#166));
#153=EDGE_LOOP('',(#167));
#154=EDGE_LOOP('',(#168));
#155=EDGE_LOOP('',(#169));
#156=EDGE_LOOP('',(#170));
#157=EDGE_LOOP('',(#171));
#158=ORIENTED_EDGE('',*,*,#179,.T.);
#159=ORIENTED_EDGE('',*,*,#180,.F.);
#160=ORIENTED_EDGE('',*,*,#179,.F.);
#161=ORIENTED_EDGE('',*,*,#180,.T.);
#162=ORIENTED_EDGE('',*,*,#181,.F.);
#163=ORIENTED_EDGE('',*,*,#181,.T.);
#164=ORIENTED_EDGE('',*,*,#182,.T.);
#165=ORIENTED_EDGE('',*,*,#183,.T.);
#166=ORIENTED_EDGE('',*,*,#184,.T.);
#167=ORIENTED_EDGE('',*,*,#182,.F.);
#168=ORIENTED_EDGE('',*,*,#185,.F.);
#169=ORIENTED_EDGE('',*,*,#184,.F.);
#170=ORIENTED_EDGE('',*,*,#183,.F.);
#171=ORIENTED_EDGE('',*,*,#185,.T.);
#172=VERTEX_POINT('',#243);
#173=VERTEX_POINT('',#246);
#174=VERTEX_POINT('',#249);
#175=VERTEX_POINT('',#253);
#176=VERTEX_POINT('',#255);
#177=VERTEX_POINT('',#258);
#178=VERTEX_POINT('',#261);
#179=EDGE_CURVE('',#172,#172,#186,.T.);
#180=EDGE_CURVE('',#173,#173,#187,.T.);
#181=EDGE_CURVE('',#174,#174,#188,.T.);
#182=EDGE_CURVE('',#175,#175,#189,.T.);
#183=EDGE_CURVE('',#176,#176,#190,.T.);
#184=EDGE_CURVE('',#177,#177,#191,.T.);
#185=EDGE_CURVE('',#178,#178,#192,.T.);
#186=CIRCLE('',#194,7.6110649898462);
#187=CIRCLE('',#196,8.42);
#188=CIRCLE('',#198,8.42);
#189=CIRCLE('',#201,10.85);
#190=CIRCLE('',#202,8.42);
#191=CIRCLE('',#204,10.85);
#192=CIRCLE('',#206,8.42);
#193=AXIS2_PLACEMENT_3D('',#241,#209,#210);
#194=AXIS2_PLACEMENT_3D('',#242,#211,#212);
#195=AXIS2_PLACEMENT_3D('',#244,#213,#214);
#196=AXIS2_PLACEMENT_3D('',#245,#215,#216);
#197=AXIS2_PLACEMENT_3D('',#247,#217,#218);
#198=AXIS2_PLACEMENT_3D('',#248,#219,#220);
#199=AXIS2_PLACEMENT_3D('',#250,#221,#222);
#200=AXIS2_PLACEMENT_3D('',#251,#223,#224);
#201=AXIS2_PLACEMENT_3D('',#252,#225,#226);
#202=AXIS2_PLACEMENT_3D('',#254,#227,#228);
#203=AXIS2_PLACEMENT_3D('',#256,#229,#230);
#204=AXIS2_PLACEMENT_3D('',#257,#231,#232);
#205=AXIS2_PLACEMENT_3D('',#259,#233,#234);
#206=AXIS2_PLACEMENT_3D('',#260,#235,#236);
#207=AXIS2_PLACEMENT_3D('',#262,#237,#238);
#208=AXIS2_PLACEMENT_3D('',#263,#239,#240);
#209=DIRECTION('',(0.,0.,1.));
#210=DIRECTION('',(1.,0.,0.));
#211=DIRECTION('',(0.,0.,-1.));
#212=DIRECTION('',(-1.,0.,0.));
#213=DIRECTION('',(0.,0.,-1.));
#214=DIRECTION('',(-1.,0.,0.));
#215=DIRECTION('',(0.,0.,1.));
#216=DIRECTION('',(1.,0.,0.));
#217=DIRECTION('',(0.,0.,1.));
#218=DIRECTION('',(1.,0.,-1.24645161176159E-017));
#219=DIRECTION('',(0.,0.,1.));
#220=DIRECTION('',(1.,0.,0.));
#221=DIRECTION('',(0.,0.,-1.));
#222=DIRECTION('',(-1.,0.,0.));
#223=DIRECTION('',(0.,0.,1.));
#224=DIRECTION('',(1.,0.,0.));
#225=DIRECTION('',(0.,0.,-1.));
#226=DIRECTION('',(-1.,0.,0.));
#227=DIRECTION('',(0.,0.,1.));
#228=DIRECTION('',(1.,0.,0.));
#229=DIRECTION('',(0.,0.,1.));
#230=DIRECTION('',(1.,0.,-1.24645161176159E-017));
#231=DIRECTION('',(0.,0.,-1.));
#232=DIRECTION('',(-1.,0.,0.));
#233=DIRECTION('',(0.,0.,-1.));
#234=DIRECTION('',(-1.,0.,0.));
#235=DIRECTION('',(0.,0.,1.));
#236=DIRECTION('',(-1.,0.,0.));
#237=DIRECTION('',(0.,0.,-1.));
#238=DIRECTION('',(-1.,0.,1.21925255232152E-017));
#239=DIRECTION('',(0.,0.,-1.));
#240=DIRECTION('',(-1.,0.,0.));
#241=CARTESIAN_POINT('',(0.,0.,0.));
#242=CARTESIAN_POINT('',(0.,0.,-5.85));
#243=CARTESIAN_POINT('',(-7.6110649898462,0.,-5.85));
#244=CARTESIAN_POINT('',(0.,7.42,-5.85));
#245=CARTESIAN_POINT('',(0.,0.,-5.38296115413079));
#246=CARTESIAN_POINT('',(8.42,0.,-5.38296115413079));
#247=CARTESIAN_POINT('',(0.,0.,-5.85));
#248=CARTESIAN_POINT('',(0.,0.,0.));
#249=CARTESIAN_POINT('',(8.42,0.,0.));
#250=CARTESIAN_POINT('',(0.,0.,0.));
#251=CARTESIAN_POINT('',(0.,0.,0.));
#252=CARTESIAN_POINT('',(0.,0.,-3.98));
#253=CARTESIAN_POINT('',(-10.85,0.,-3.98));
#254=CARTESIAN_POINT('',(0.,0.,-5.38296115413079));
#255=CARTESIAN_POINT('',(8.42,0.,-5.38296115413079));
#256=CARTESIAN_POINT('',(0.,0.,-5.85));
#257=CARTESIAN_POINT('',(0.,0.,-3.42));
#258=CARTESIAN_POINT('',(-10.85,0.,-3.42));
#259=CARTESIAN_POINT('',(0.,0.,-5.85));
#260=CARTESIAN_POINT('',(0.,0.,-2.01703884586921));
#261=CARTESIAN_POINT('',(-8.42,0.,-2.01703884586921));
#262=CARTESIAN_POINT('',(0.,0.,-3.42));
#263=CARTESIAN_POINT('',(0.,0.,0.));
#264=MECHANICAL_DESIGN_GEOMETRIC_PRESENTATION_REPRESENTATION('',(#94,#95),
#265);
#265=(
GEOMETRIC_REPRESENTATION_CONTEXT(3)
GLOBAL_UNCERTAINTY_ASSIGNED_CONTEXT((#266))
GLOBAL_UNIT_ASSIGNED_CONTEXT((#272,#268,#267))
REPRESENTATION_CONTEXT('327R12_22_450MM_TH_SIM',
'TOP_LEVEL_ASSEMBLY_PART')
);
#266=UNCERTAINTY_MEASURE_WITH_UNIT(LENGTH_MEASURE(2.E-005),#272,
'DISTANCE_ACCURACY_VALUE','Maximum Tolerance applied to model');
#267=(
NAMED_UNIT(*)
SI_UNIT($,.STERADIAN.)
SOLID_ANGLE_UNIT()
);
#268=(
CONVERSION_BASED_UNIT('DEGREE',#270)
NAMED_UNIT(#269)
PLANE_ANGLE_UNIT()
);
#269=DIMENSIONAL_EXPONENTS(0.,0.,0.,0.,0.,0.,0.);
#270=PLANE_ANGLE_MEASURE_WITH_UNIT(PLANE_ANGLE_MEASURE(0.0174532925),#271);
#271=(
NAMED_UNIT(*)
PLANE_ANGLE_UNIT()
SI_UNIT($,.RADIAN.)
);
#272=(
LENGTH_UNIT()
NAMED_UNIT(*)
SI_UNIT(.MILLI.,.METRE.)
);
ENDSEC;
END-ISO-10303-21;
