ISO-10303-21;
HEADER;
/* Generated by software containing ST-Developer
 * from STEP Tools, Inc. (www.steptools.com) 
 */
/* OPTION: using custom schema-name function */

FILE_DESCRIPTION(
/* description */ ('3-D model version:1'),
/* implementation_level */ '2;1');

FILE_NAME(
/* name */ '327R12-22 31545-GC  1025',
/* time_stamp */ '2015-10-29T15:26:05+01:00',
/* author */ ('InteractiveCad'),
/* organization */ ('AB Sandvik Coromant'),
/* preprocessor_version */ 'ST-DEVELOPER v15',
/* originating_system */ 'SIEMENS PLM Software NX 8.5',
/* authorisation */ '');

FILE_SCHEMA (('AP203_CONFIGURATION_CONTROLLED_3D_DESIGN_OF_MECHANICAL_PARTS_AND_ASSEMBLIES_MIM_LF { 1 0 10303 403 2 1 2}'));
ENDSEC;

DATA;
#10=SHAPE_REPRESENTATION_RELATIONSHIP('None',
'relationship between 327R12_22_31545_GC_SIM-None and 327R12_22_31545_
GC_SIM-None',#92,#11);
#11=ADVANCED_BREP_SHAPE_REPRESENTATION('327R12_22_31545_GC_SIM-None',(#112,
#113),#385);
#12=CC_DESIGN_APPROVAL(#24,(#82));
#13=CC_DESIGN_APPROVAL(#25,(#84));
#14=CC_DESIGN_APPROVAL(#26,(#31));
#15=APPROVAL_PERSON_ORGANIZATION(#69,#24,#18);
#16=APPROVAL_PERSON_ORGANIZATION(#70,#25,#19);
#17=APPROVAL_PERSON_ORGANIZATION(#71,#26,#20);
#18=APPROVAL_ROLE('approver');
#19=APPROVAL_ROLE('approver');
#20=APPROVAL_ROLE('approver');
#21=APPROVAL_DATE_TIME(#39,#24);
#22=APPROVAL_DATE_TIME(#40,#25);
#23=APPROVAL_DATE_TIME(#41,#26);
#24=APPROVAL(#27,' ');
#25=APPROVAL(#28,' ');
#26=APPROVAL(#29,' ');
#27=APPROVAL_STATUS('not_yet_approved');
#28=APPROVAL_STATUS('not_yet_approved');
#29=APPROVAL_STATUS('not_yet_approved');
#30=CC_DESIGN_SECURITY_CLASSIFICATION(#31,(#84));
#31=SECURITY_CLASSIFICATION(' ',' ',#32);
#32=SECURITY_CLASSIFICATION_LEVEL('confidential');
#33=CC_DESIGN_DATE_AND_TIME_ASSIGNMENT(#37,#35,(#82));
#34=CC_DESIGN_DATE_AND_TIME_ASSIGNMENT(#38,#36,(#31));
#35=DATE_TIME_ROLE('creation_date');
#36=DATE_TIME_ROLE('classification_date');
#37=DATE_AND_TIME(#52,#42);
#38=DATE_AND_TIME(#53,#43);
#39=DATE_AND_TIME(#54,#44);
#40=DATE_AND_TIME(#55,#45);
#41=DATE_AND_TIME(#56,#46);
#42=LOCAL_TIME(0,0,0.,#47);
#43=LOCAL_TIME(0,0,0.,#48);
#44=LOCAL_TIME(0,0,0.,#49);
#45=LOCAL_TIME(0,0,0.,#50);
#46=LOCAL_TIME(0,0,0.,#51);
#47=COORDINATED_UNIVERSAL_TIME_OFFSET(0,0,.BEHIND.);
#48=COORDINATED_UNIVERSAL_TIME_OFFSET(0,0,.BEHIND.);
#49=COORDINATED_UNIVERSAL_TIME_OFFSET(0,0,.BEHIND.);
#50=COORDINATED_UNIVERSAL_TIME_OFFSET(0,0,.BEHIND.);
#51=COORDINATED_UNIVERSAL_TIME_OFFSET(0,0,.BEHIND.);
#52=CALENDAR_DATE(0,1,1);
#53=CALENDAR_DATE(0,1,1);
#54=CALENDAR_DATE(0,1,1);
#55=CALENDAR_DATE(0,1,1);
#56=CALENDAR_DATE(0,1,1);
#57=CC_DESIGN_PERSON_AND_ORGANIZATION_ASSIGNMENT(#65,#61,(#82,#84));
#58=CC_DESIGN_PERSON_AND_ORGANIZATION_ASSIGNMENT(#66,#62,(#86));
#59=CC_DESIGN_PERSON_AND_ORGANIZATION_ASSIGNMENT(#67,#63,(#84));
#60=CC_DESIGN_PERSON_AND_ORGANIZATION_ASSIGNMENT(#68,#64,(#31));
#61=PERSON_AND_ORGANIZATION_ROLE('creator');
#62=PERSON_AND_ORGANIZATION_ROLE('design_owner');
#63=PERSON_AND_ORGANIZATION_ROLE('design_supplier');
#64=PERSON_AND_ORGANIZATION_ROLE('classification_officer');
#65=PERSON_AND_ORGANIZATION(#79,#72);
#66=PERSON_AND_ORGANIZATION(#79,#73);
#67=PERSON_AND_ORGANIZATION(#79,#74);
#68=PERSON_AND_ORGANIZATION(#79,#75);
#69=PERSON_AND_ORGANIZATION(#79,#76);
#70=PERSON_AND_ORGANIZATION(#79,#77);
#71=PERSON_AND_ORGANIZATION(#79,#78);
#72=ORGANIZATION(' ',' ',' ');
#73=ORGANIZATION(' ',' ',' ');
#74=ORGANIZATION(' ',' ',' ');
#75=ORGANIZATION(' ',' ',' ');
#76=ORGANIZATION(' ',' ',' ');
#77=ORGANIZATION(' ',' ',' ');
#78=ORGANIZATION(' ',' ',' ');
#79=PERSON(' ',' ',' ',(' '),$,$);
#80=SHAPE_DEFINITION_REPRESENTATION(#81,#92);
#81=PRODUCT_DEFINITION_SHAPE('','',#82);
#82=PRODUCT_DEFINITION(' ','',#84,#83);
#83=DESIGN_CONTEXT('',#91,'design');
#84=PRODUCT_DEFINITION_FORMATION_WITH_SPECIFIED_SOURCE(' ',' ',#86,
 .NOT_KNOWN.);
#85=PRODUCT_RELATED_PRODUCT_CATEGORY('detail','',(#86));
#86=PRODUCT('327R12_22_31545_GC_SIM','327R12_22_31545_GC_SIM',' ',(#89));
#87=PRODUCT_CATEGORY('part',' ');
#88=PRODUCT_CATEGORY(' ','');
#89=MECHANICAL_CONTEXT(' ',#91,'mechanical');
#90=APPLICATION_PROTOCOL_DEFINITION('international standard',
'config_control_design',2010,#91);
#91=APPLICATION_CONTEXT(
'configuration controlled 3D designs of mechanical parts and assemblie
s');
#92=SHAPE_REPRESENTATION('327R12_22_31545_GC_SIM-None',(#259),#385);
#93=TOROIDAL_SURFACE('',#285,10.65,0.2);
#94=TOROIDAL_SURFACE('',#286,10.65,0.2);
#95=PRESENTATION_LAYER_ASSIGNMENT('1','Layer 1',(#112,#113));
#96=STYLED_ITEM('',(#98),#112);
#97=STYLED_ITEM('',(#99),#113);
#98=PRESENTATION_STYLE_ASSIGNMENT((#100));
#99=PRESENTATION_STYLE_ASSIGNMENT((#101));
#100=SURFACE_STYLE_USAGE(.BOTH.,#102);
#101=SURFACE_STYLE_USAGE(.BOTH.,#103);
#102=SURFACE_SIDE_STYLE('',(#104));
#103=SURFACE_SIDE_STYLE('',(#105));
#104=SURFACE_STYLE_FILL_AREA(#106);
#105=SURFACE_STYLE_FILL_AREA(#107);
#106=FILL_AREA_STYLE('',(#108));
#107=FILL_AREA_STYLE('',(#109));
#108=FILL_AREA_STYLE_COLOUR('',#110);
#109=FILL_AREA_STYLE_COLOUR('',#111);
#110=COLOUR_RGB('TLS_NOCUT',0.499992370489052,0.499992370489052,0.499992370489052);
#111=COLOUR_RGB('TLS_CUT',0.8,0.8,0.8);
#112=MANIFOLD_SOLID_BREP('',#114);
#113=MANIFOLD_SOLID_BREP('',#115);
#114=CLOSED_SHELL('',(#148,#149,#150,#151,#152,#153));
#115=CLOSED_SHELL('',(#154,#155,#156,#157,#158,#159,#160,#161));
#116=CYLINDRICAL_SURFACE('',#267,8.7);
#117=CYLINDRICAL_SURFACE('',#278,10.85);
#118=CYLINDRICAL_SURFACE('',#284,8.7);
#119=CONICAL_SURFACE('',#264,8.6,45.);
#120=CONICAL_SURFACE('',#265,8.44427017892386,5.);
#121=CONICAL_SURFACE('',#270,9.1,45.);
#122=CONICAL_SURFACE('',#275,8.6,45.);
#123=CONICAL_SURFACE('',#283,9.1,45.);
#124=FACE_BOUND('',#169,.T.);
#125=FACE_BOUND('',#170,.T.);
#126=FACE_BOUND('',#171,.T.);
#127=FACE_BOUND('',#172,.T.);
#128=FACE_BOUND('',#173,.T.);
#129=FACE_BOUND('',#174,.T.);
#130=FACE_BOUND('',#176,.T.);
#131=FACE_BOUND('',#177,.T.);
#132=FACE_BOUND('',#178,.T.);
#133=FACE_BOUND('',#179,.T.);
#134=FACE_BOUND('',#180,.T.);
#135=FACE_BOUND('',#181,.T.);
#136=FACE_BOUND('',#182,.T.);
#137=FACE_BOUND('',#183,.T.);
#138=FACE_BOUND('',#184,.T.);
#139=FACE_BOUND('',#185,.T.);
#140=FACE_BOUND('',#186,.T.);
#141=FACE_BOUND('',#187,.T.);
#142=FACE_BOUND('',#188,.T.);
#143=FACE_BOUND('',#189,.T.);
#144=FACE_BOUND('',#190,.T.);
#145=FACE_BOUND('',#191,.T.);
#146=FACE_BOUND('',#192,.T.);
#147=FACE_BOUND('',#193,.T.);
#148=ADVANCED_FACE('',(#166),#162,.T.);
#149=ADVANCED_FACE('',(#124,#125),#119,.T.);
#150=ADVANCED_FACE('',(#126,#127),#120,.T.);
#151=ADVANCED_FACE('',(#128,#129),#116,.T.);
#152=ADVANCED_FACE('',(#167),#163,.T.);
#153=ADVANCED_FACE('',(#130,#131),#121,.T.);
#154=ADVANCED_FACE('',(#132,#133),#164,.T.);
#155=ADVANCED_FACE('',(#134,#135),#122,.T.);
#156=ADVANCED_FACE('',(#136,#137),#117,.T.);
#157=ADVANCED_FACE('',(#138,#139),#165,.T.);
#158=ADVANCED_FACE('',(#140,#141),#123,.T.);
#159=ADVANCED_FACE('',(#142,#143),#118,.F.);
#160=ADVANCED_FACE('',(#144,#145),#93,.T.);
#161=ADVANCED_FACE('',(#146,#147),#94,.T.);
#162=PLANE('',#261);
#163=PLANE('',#269);
#164=PLANE('',#273);
#165=PLANE('',#281);
#166=FACE_OUTER_BOUND('',#168,.T.);
#167=FACE_OUTER_BOUND('',#175,.T.);
#168=EDGE_LOOP('',(#194));
#169=EDGE_LOOP('',(#195));
#170=EDGE_LOOP('',(#196));
#171=EDGE_LOOP('',(#197));
#172=EDGE_LOOP('',(#198));
#173=EDGE_LOOP('',(#199));
#174=EDGE_LOOP('',(#200));
#175=EDGE_LOOP('',(#201));
#176=EDGE_LOOP('',(#202));
#177=EDGE_LOOP('',(#203));
#178=EDGE_LOOP('',(#204));
#179=EDGE_LOOP('',(#205));
#180=EDGE_LOOP('',(#206));
#181=EDGE_LOOP('',(#207));
#182=EDGE_LOOP('',(#208));
#183=EDGE_LOOP('',(#209));
#184=EDGE_LOOP('',(#210));
#185=EDGE_LOOP('',(#211));
#186=EDGE_LOOP('',(#212));
#187=EDGE_LOOP('',(#213));
#188=EDGE_LOOP('',(#214));
#189=EDGE_LOOP('',(#215));
#190=EDGE_LOOP('',(#216));
#191=EDGE_LOOP('',(#217));
#192=EDGE_LOOP('',(#218));
#193=EDGE_LOOP('',(#219));
#194=ORIENTED_EDGE('',*,*,#233,.T.);
#195=ORIENTED_EDGE('',*,*,#234,.T.);
#196=ORIENTED_EDGE('',*,*,#235,.T.);
#197=ORIENTED_EDGE('',*,*,#235,.F.);
#198=ORIENTED_EDGE('',*,*,#233,.F.);
#199=ORIENTED_EDGE('',*,*,#234,.F.);
#200=ORIENTED_EDGE('',*,*,#236,.F.);
#201=ORIENTED_EDGE('',*,*,#237,.T.);
#202=ORIENTED_EDGE('',*,*,#236,.T.);
#203=ORIENTED_EDGE('',*,*,#237,.F.);
#204=ORIENTED_EDGE('',*,*,#238,.T.);
#205=ORIENTED_EDGE('',*,*,#239,.F.);
#206=ORIENTED_EDGE('',*,*,#239,.T.);
#207=ORIENTED_EDGE('',*,*,#240,.T.);
#208=ORIENTED_EDGE('',*,*,#241,.T.);
#209=ORIENTED_EDGE('',*,*,#242,.T.);
#210=ORIENTED_EDGE('',*,*,#243,.T.);
#211=ORIENTED_EDGE('',*,*,#244,.F.);
#212=ORIENTED_EDGE('',*,*,#244,.T.);
#213=ORIENTED_EDGE('',*,*,#245,.T.);
#214=ORIENTED_EDGE('',*,*,#240,.F.);
#215=ORIENTED_EDGE('',*,*,#245,.F.);
#216=ORIENTED_EDGE('',*,*,#241,.F.);
#217=ORIENTED_EDGE('',*,*,#243,.F.);
#218=ORIENTED_EDGE('',*,*,#238,.F.);
#219=ORIENTED_EDGE('',*,*,#242,.F.);
#220=VERTEX_POINT('',#345);
#221=VERTEX_POINT('',#348);
#222=VERTEX_POINT('',#350);
#223=VERTEX_POINT('',#354);
#224=VERTEX_POINT('',#357);
#225=VERTEX_POINT('',#361);
#226=VERTEX_POINT('',#363);
#227=VERTEX_POINT('',#366);
#228=VERTEX_POINT('',#369);
#229=VERTEX_POINT('',#371);
#230=VERTEX_POINT('',#374);
#231=VERTEX_POINT('',#376);
#232=VERTEX_POINT('',#379);
#233=EDGE_CURVE('',#220,#220,#246,.T.);
#234=EDGE_CURVE('',#221,#221,#247,.T.);
#235=EDGE_CURVE('',#222,#222,#248,.T.);
#236=EDGE_CURVE('',#223,#223,#249,.T.);
#237=EDGE_CURVE('',#224,#224,#250,.T.);
#238=EDGE_CURVE('',#225,#225,#251,.T.);
#239=EDGE_CURVE('',#226,#226,#252,.T.);
#240=EDGE_CURVE('',#227,#227,#253,.T.);
#241=EDGE_CURVE('',#228,#228,#254,.T.);
#242=EDGE_CURVE('',#229,#229,#255,.T.);
#243=EDGE_CURVE('',#230,#230,#256,.T.);
#244=EDGE_CURVE('',#231,#231,#257,.T.);
#245=EDGE_CURVE('',#232,#232,#258,.T.);
#246=CIRCLE('',#260,8.44427017892386);
#247=CIRCLE('',#262,8.7);
#248=CIRCLE('',#263,8.58082464074058);
#249=CIRCLE('',#266,8.7);
#250=CIRCLE('',#268,8.59);
#251=CIRCLE('',#271,10.65);
#252=CIRCLE('',#272,9.1);
#253=CIRCLE('',#274,8.7);
#254=CIRCLE('',#276,10.85);
#255=CIRCLE('',#277,10.85);
#256=CIRCLE('',#279,10.65);
#257=CIRCLE('',#280,9.1);
#258=CIRCLE('',#282,8.7);
#259=AXIS2_PLACEMENT_3D('',#343,#287,#288);
#260=AXIS2_PLACEMENT_3D('',#344,#289,#290);
#261=AXIS2_PLACEMENT_3D('',#346,#291,#292);
#262=AXIS2_PLACEMENT_3D('',#347,#293,#294);
#263=AXIS2_PLACEMENT_3D('',#349,#295,#296);
#264=AXIS2_PLACEMENT_3D('',#351,#297,#298);
#265=AXIS2_PLACEMENT_3D('',#352,#299,#300);
#266=AXIS2_PLACEMENT_3D('',#353,#301,#302);
#267=AXIS2_PLACEMENT_3D('',#355,#303,#304);
#268=AXIS2_PLACEMENT_3D('',#356,#305,#306);
#269=AXIS2_PLACEMENT_3D('',#358,#307,#308);
#270=AXIS2_PLACEMENT_3D('',#359,#309,#310);
#271=AXIS2_PLACEMENT_3D('',#360,#311,#312);
#272=AXIS2_PLACEMENT_3D('',#362,#313,#314);
#273=AXIS2_PLACEMENT_3D('',#364,#315,#316);
#274=AXIS2_PLACEMENT_3D('',#365,#317,#318);
#275=AXIS2_PLACEMENT_3D('',#367,#319,#320);
#276=AXIS2_PLACEMENT_3D('',#368,#321,#322);
#277=AXIS2_PLACEMENT_3D('',#370,#323,#324);
#278=AXIS2_PLACEMENT_3D('',#372,#325,#326);
#279=AXIS2_PLACEMENT_3D('',#373,#327,#328);
#280=AXIS2_PLACEMENT_3D('',#375,#329,#330);
#281=AXIS2_PLACEMENT_3D('',#377,#331,#332);
#282=AXIS2_PLACEMENT_3D('',#378,#333,#334);
#283=AXIS2_PLACEMENT_3D('',#380,#335,#336);
#284=AXIS2_PLACEMENT_3D('',#381,#337,#338);
#285=AXIS2_PLACEMENT_3D('',#382,#339,#340);
#286=AXIS2_PLACEMENT_3D('',#383,#341,#342);
#287=DIRECTION('',(0.,0.,1.));
#288=DIRECTION('',(1.,0.,0.));
#289=DIRECTION('',(0.,0.,1.));
#290=DIRECTION('',(1.,0.,0.));
#291=DIRECTION('',(0.,0.,1.));
#292=DIRECTION('',(1.,0.,0.));
#293=DIRECTION('',(0.,0.,1.));
#294=DIRECTION('',(-1.,0.,0.));
#295=DIRECTION('',(0.,0.,-1.));
#296=DIRECTION('',(-1.,0.,0.));
#297=DIRECTION('',(0.,0.,-1.));
#298=DIRECTION('',(-1.,0.,8.44916624602029E-017));
#299=DIRECTION('',(0.,0.,-1.));
#300=DIRECTION('',(-1.,0.,0.));
#301=DIRECTION('',(0.,0.,-1.));
#302=DIRECTION('',(1.,0.,0.));
#303=DIRECTION('',(0.,0.,-1.));
#304=DIRECTION('',(-1.,0.,0.));
#305=DIRECTION('',(0.,0.,-1.));
#306=DIRECTION('',(-1.,0.,0.));
#307=DIRECTION('',(0.,0.,-1.));
#308=DIRECTION('',(-1.,0.,0.));
#309=DIRECTION('',(0.,0.,1.));
#310=DIRECTION('',(1.,0.,-1.11740190207603E-017));
#311=DIRECTION('',(0.,0.,1.));
#312=DIRECTION('',(1.,0.,0.));
#313=DIRECTION('',(0.,0.,1.));
#314=DIRECTION('',(1.,0.,0.));
#315=DIRECTION('',(0.,0.,1.));
#316=DIRECTION('',(1.,0.,0.));
#317=DIRECTION('',(0.,0.,-1.));
#318=DIRECTION('',(-1.,0.,0.));
#319=DIRECTION('',(0.,0.,-1.));
#320=DIRECTION('',(-1.,0.,8.44916624602029E-017));
#321=DIRECTION('',(0.,0.,1.));
#322=DIRECTION('',(-1.,0.,0.));
#323=DIRECTION('',(0.,0.,-1.));
#324=DIRECTION('',(1.,0.,0.));
#325=DIRECTION('',(0.,0.,-1.));
#326=DIRECTION('',(-1.,0.,0.));
#327=DIRECTION('',(0.,0.,-1.));
#328=DIRECTION('',(-1.,0.,0.));
#329=DIRECTION('',(0.,0.,-1.));
#330=DIRECTION('',(-1.,0.,0.));
#331=DIRECTION('',(0.,0.,-1.));
#332=DIRECTION('',(-1.,0.,0.));
#333=DIRECTION('',(0.,0.,1.));
#334=DIRECTION('',(1.,0.,0.));
#335=DIRECTION('',(0.,0.,1.));
#336=DIRECTION('',(1.,0.,-1.11740190207603E-017));
#337=DIRECTION('',(0.,0.,-1.));
#338=DIRECTION('',(-1.,0.,0.));
#339=DIRECTION('',(0.,0.,-1.));
#340=DIRECTION('',(-1.,0.,0.));
#341=DIRECTION('',(0.,0.,1.));
#342=DIRECTION('',(1.,0.,0.));
#343=CARTESIAN_POINT('',(0.,0.,0.));
#344=CARTESIAN_POINT('',(0.,0.,0.));
#345=CARTESIAN_POINT('',(8.44427017892386,0.,0.));
#346=CARTESIAN_POINT('',(0.,0.,0.));
#347=CARTESIAN_POINT('',(0.,0.,-1.68));
#348=CARTESIAN_POINT('',(-8.7,0.,-1.68));
#349=CARTESIAN_POINT('',(0.,0.,-1.56082464074058));
#350=CARTESIAN_POINT('',(-8.58082464074058,0.,-1.56082464074058));
#351=CARTESIAN_POINT('',(0.,0.,-1.58));
#352=CARTESIAN_POINT('',(0.,0.,0.));
#353=CARTESIAN_POINT('',(0.,0.,-5.74));
#354=CARTESIAN_POINT('',(8.7,0.,-5.74));
#355=CARTESIAN_POINT('',(0.,0.,0.));
#356=CARTESIAN_POINT('',(0.,0.,-5.85));
#357=CARTESIAN_POINT('',(-8.59,0.,-5.85));
#358=CARTESIAN_POINT('',(0.,9.1,-5.85));
#359=CARTESIAN_POINT('',(0.,0.,-5.34));
#360=CARTESIAN_POINT('',(0.,0.,-2.08));
#361=CARTESIAN_POINT('',(10.65,0.,-2.08));
#362=CARTESIAN_POINT('',(0.,0.,-2.08));
#363=CARTESIAN_POINT('',(9.1,0.,-2.08));
#364=CARTESIAN_POINT('',(0.,10.85,-2.08));
#365=CARTESIAN_POINT('',(0.,0.,-1.68));
#366=CARTESIAN_POINT('',(-8.7,0.,-1.68));
#367=CARTESIAN_POINT('',(0.,0.,-1.58));
#368=CARTESIAN_POINT('',(0.,0.,-5.14));
#369=CARTESIAN_POINT('',(-10.85,0.,-5.14));
#370=CARTESIAN_POINT('',(0.,0.,-2.28));
#371=CARTESIAN_POINT('',(10.85,0.,-2.28));
#372=CARTESIAN_POINT('',(0.,0.,-5.85));
#373=CARTESIAN_POINT('',(0.,0.,-5.34));
#374=CARTESIAN_POINT('',(-10.65,0.,-5.34));
#375=CARTESIAN_POINT('',(0.,0.,-5.34));
#376=CARTESIAN_POINT('',(-9.1,0.,-5.34));
#377=CARTESIAN_POINT('',(0.,9.1,-5.34));
#378=CARTESIAN_POINT('',(0.,0.,-5.74));
#379=CARTESIAN_POINT('',(8.7,0.,-5.74));
#380=CARTESIAN_POINT('',(0.,0.,-5.34));
#381=CARTESIAN_POINT('',(0.,0.,0.));
#382=CARTESIAN_POINT('',(0.,0.,-5.14));
#383=CARTESIAN_POINT('',(0.,0.,-2.28));
#384=MECHANICAL_DESIGN_GEOMETRIC_PRESENTATION_REPRESENTATION('',(#96,#97),
#385);
#385=(
GEOMETRIC_REPRESENTATION_CONTEXT(3)
GLOBAL_UNCERTAINTY_ASSIGNED_CONTEXT((#386))
GLOBAL_UNIT_ASSIGNED_CONTEXT((#392,#388,#387))
REPRESENTATION_CONTEXT('327R12_22_31545_GC_SIM',
'TOP_LEVEL_ASSEMBLY_PART')
);
#386=UNCERTAINTY_MEASURE_WITH_UNIT(LENGTH_MEASURE(2.E-005),#392,
'DISTANCE_ACCURACY_VALUE','Maximum Tolerance applied to model');
#387=(
NAMED_UNIT(*)
SI_UNIT($,.STERADIAN.)
SOLID_ANGLE_UNIT()
);
#388=(
CONVERSION_BASED_UNIT('DEGREE',#390)
NAMED_UNIT(#389)
PLANE_ANGLE_UNIT()
);
#389=DIMENSIONAL_EXPONENTS(0.,0.,0.,0.,0.,0.,0.);
#390=PLANE_ANGLE_MEASURE_WITH_UNIT(PLANE_ANGLE_MEASURE(0.0174532925),#391);
#391=(
NAMED_UNIT(*)
PLANE_ANGLE_UNIT()
SI_UNIT($,.RADIAN.)
);
#392=(
LENGTH_UNIT()
NAMED_UNIT(*)
SI_UNIT(.MILLI.,.METRE.)
);
ENDSEC;
END-ISO-10303-21;
