ISO-10303-21;
HEADER;
/* Generated by software containing ST-Developer
 * from STEP Tools, Inc. (www.steptools.com) 
 */
/* OPTION: using custom schema-name function */

FILE_DESCRIPTION(
/* description */ ('3-D model version:1'),
/* implementation_level */ '2;1');

FILE_NAME(
/* name */ '327R12-2220045-CH  1025',
/* time_stamp */ '2015-10-29T15:39:03+01:00',
/* author */ ('InteractiveCad'),
/* organization */ ('AB Sandvik Coromant'),
/* preprocessor_version */ 'ST-DEVELOPER v15',
/* originating_system */ 'SIEMENS PLM Software NX 8.5',
/* authorisation */ '');

FILE_SCHEMA (('AP203_CONFIGURATION_CONTROLLED_3D_DESIGN_OF_MECHANICAL_PARTS_AND_ASSEMBLIES_MIM_LF { 1 0 10303 403 2 1 2}'));
ENDSEC;

DATA;
#10=SHAPE_REPRESENTATION_RELATIONSHIP('None',
'relationship between 327R12_22_20045_CH_SIM-None and 327R12_22_20045_
CH_SIM-None',#92,#11);
#11=ADVANCED_BREP_SHAPE_REPRESENTATION('327R12_22_20045_CH_SIM-None',(#114,
#115),#245);
#12=CC_DESIGN_APPROVAL(#24,(#82));
#13=CC_DESIGN_APPROVAL(#25,(#84));
#14=CC_DESIGN_APPROVAL(#26,(#31));
#15=APPROVAL_PERSON_ORGANIZATION(#69,#24,#18);
#16=APPROVAL_PERSON_ORGANIZATION(#70,#25,#19);
#17=APPROVAL_PERSON_ORGANIZATION(#71,#26,#20);
#18=APPROVAL_ROLE('approver');
#19=APPROVAL_ROLE('approver');
#20=APPROVAL_ROLE('approver');
#21=APPROVAL_DATE_TIME(#39,#24);
#22=APPROVAL_DATE_TIME(#40,#25);
#23=APPROVAL_DATE_TIME(#41,#26);
#24=APPROVAL(#27,' ');
#25=APPROVAL(#28,' ');
#26=APPROVAL(#29,' ');
#27=APPROVAL_STATUS('not_yet_approved');
#28=APPROVAL_STATUS('not_yet_approved');
#29=APPROVAL_STATUS('not_yet_approved');
#30=CC_DESIGN_SECURITY_CLASSIFICATION(#31,(#84));
#31=SECURITY_CLASSIFICATION(' ',' ',#32);
#32=SECURITY_CLASSIFICATION_LEVEL('confidential');
#33=CC_DESIGN_DATE_AND_TIME_ASSIGNMENT(#37,#35,(#82));
#34=CC_DESIGN_DATE_AND_TIME_ASSIGNMENT(#38,#36,(#31));
#35=DATE_TIME_ROLE('creation_date');
#36=DATE_TIME_ROLE('classification_date');
#37=DATE_AND_TIME(#52,#42);
#38=DATE_AND_TIME(#53,#43);
#39=DATE_AND_TIME(#54,#44);
#40=DATE_AND_TIME(#55,#45);
#41=DATE_AND_TIME(#56,#46);
#42=LOCAL_TIME(0,0,0.,#47);
#43=LOCAL_TIME(0,0,0.,#48);
#44=LOCAL_TIME(0,0,0.,#49);
#45=LOCAL_TIME(0,0,0.,#50);
#46=LOCAL_TIME(0,0,0.,#51);
#47=COORDINATED_UNIVERSAL_TIME_OFFSET(0,0,.BEHIND.);
#48=COORDINATED_UNIVERSAL_TIME_OFFSET(0,0,.BEHIND.);
#49=COORDINATED_UNIVERSAL_TIME_OFFSET(0,0,.BEHIND.);
#50=COORDINATED_UNIVERSAL_TIME_OFFSET(0,0,.BEHIND.);
#51=COORDINATED_UNIVERSAL_TIME_OFFSET(0,0,.BEHIND.);
#52=CALENDAR_DATE(0,1,1);
#53=CALENDAR_DATE(0,1,1);
#54=CALENDAR_DATE(0,1,1);
#55=CALENDAR_DATE(0,1,1);
#56=CALENDAR_DATE(0,1,1);
#57=CC_DESIGN_PERSON_AND_ORGANIZATION_ASSIGNMENT(#65,#61,(#82,#84));
#58=CC_DESIGN_PERSON_AND_ORGANIZATION_ASSIGNMENT(#66,#62,(#86));
#59=CC_DESIGN_PERSON_AND_ORGANIZATION_ASSIGNMENT(#67,#63,(#84));
#60=CC_DESIGN_PERSON_AND_ORGANIZATION_ASSIGNMENT(#68,#64,(#31));
#61=PERSON_AND_ORGANIZATION_ROLE('creator');
#62=PERSON_AND_ORGANIZATION_ROLE('design_owner');
#63=PERSON_AND_ORGANIZATION_ROLE('design_supplier');
#64=PERSON_AND_ORGANIZATION_ROLE('classification_officer');
#65=PERSON_AND_ORGANIZATION(#79,#72);
#66=PERSON_AND_ORGANIZATION(#79,#73);
#67=PERSON_AND_ORGANIZATION(#79,#74);
#68=PERSON_AND_ORGANIZATION(#79,#75);
#69=PERSON_AND_ORGANIZATION(#79,#76);
#70=PERSON_AND_ORGANIZATION(#79,#77);
#71=PERSON_AND_ORGANIZATION(#79,#78);
#72=ORGANIZATION(' ',' ',' ');
#73=ORGANIZATION(' ',' ',' ');
#74=ORGANIZATION(' ',' ',' ');
#75=ORGANIZATION(' ',' ',' ');
#76=ORGANIZATION(' ',' ',' ');
#77=ORGANIZATION(' ',' ',' ');
#78=ORGANIZATION(' ',' ',' ');
#79=PERSON(' ',' ',' ',(' '),$,$);
#80=SHAPE_DEFINITION_REPRESENTATION(#81,#92);
#81=PRODUCT_DEFINITION_SHAPE('','',#82);
#82=PRODUCT_DEFINITION(' ','',#84,#83);
#83=DESIGN_CONTEXT('',#91,'design');
#84=PRODUCT_DEFINITION_FORMATION_WITH_SPECIFIED_SOURCE(' ',' ',#86,
 .NOT_KNOWN.);
#85=PRODUCT_RELATED_PRODUCT_CATEGORY('detail','',(#86));
#86=PRODUCT('327R12_22_20045_CH_SIM','327R12_22_20045_CH_SIM',' ',(#89));
#87=PRODUCT_CATEGORY('part',' ');
#88=PRODUCT_CATEGORY(' ','');
#89=MECHANICAL_CONTEXT(' ',#91,'mechanical');
#90=APPLICATION_PROTOCOL_DEFINITION('international standard',
'config_control_design',2010,#91);
#91=APPLICATION_CONTEXT(
'configuration controlled 3D designs of mechanical parts and assemblie
s');
#92=SHAPE_REPRESENTATION('327R12_22_20045_CH_SIM-None',(#182),#245);
#93=PLANE('',#192);
#94=PLANE('',#195);
#95=FACE_OUTER_BOUND('',#148,.T.);
#96=FACE_OUTER_BOUND('',#151,.T.);
#97=PRESENTATION_LAYER_ASSIGNMENT('1','Layer 1',(#114,#115));
#98=STYLED_ITEM('',(#100),#114);
#99=STYLED_ITEM('',(#101),#115);
#100=PRESENTATION_STYLE_ASSIGNMENT((#102));
#101=PRESENTATION_STYLE_ASSIGNMENT((#103));
#102=SURFACE_STYLE_USAGE(.BOTH.,#104);
#103=SURFACE_STYLE_USAGE(.BOTH.,#105);
#104=SURFACE_SIDE_STYLE('',(#106));
#105=SURFACE_SIDE_STYLE('',(#107));
#106=SURFACE_STYLE_FILL_AREA(#108);
#107=SURFACE_STYLE_FILL_AREA(#109);
#108=FILL_AREA_STYLE('',(#110));
#109=FILL_AREA_STYLE('',(#111));
#110=FILL_AREA_STYLE_COLOUR('',#112);
#111=FILL_AREA_STYLE_COLOUR('',#113);
#112=COLOUR_RGB('TLS_CUT',0.8,0.8,0.8);
#113=COLOUR_RGB('TLS_NOCUT',0.499992370489052,0.499992370489052,0.499992370489052);
#114=MANIFOLD_SOLID_BREP('',#116);
#115=MANIFOLD_SOLID_BREP('',#117);
#116=CLOSED_SHELL('',(#120,#121,#122,#123));
#117=CLOSED_SHELL('',(#124,#125,#126));
#118=CONICAL_SURFACE('',#189,8.975,45.);
#119=CONICAL_SURFACE('',#190,10.85,45.);
#120=ADVANCED_FACE('',(#130,#131),#127,.T.);
#121=ADVANCED_FACE('',(#132,#133),#128,.F.);
#122=ADVANCED_FACE('',(#134,#135),#118,.T.);
#123=ADVANCED_FACE('',(#136,#137),#119,.T.);
#124=ADVANCED_FACE('',(#95),#93,.T.);
#125=ADVANCED_FACE('',(#138,#139),#129,.T.);
#126=ADVANCED_FACE('',(#96),#94,.T.);
#127=CYLINDRICAL_SURFACE('',#185,10.85);
#128=CYLINDRICAL_SURFACE('',#188,9.15);
#129=CYLINDRICAL_SURFACE('',#194,9.2);
#130=FACE_BOUND('',#140,.T.);
#131=FACE_BOUND('',#141,.T.);
#132=FACE_BOUND('',#142,.T.);
#133=FACE_BOUND('',#143,.T.);
#134=FACE_BOUND('',#144,.T.);
#135=FACE_BOUND('',#145,.T.);
#136=FACE_BOUND('',#146,.T.);
#137=FACE_BOUND('',#147,.T.);
#138=FACE_BOUND('',#149,.T.);
#139=FACE_BOUND('',#150,.T.);
#140=EDGE_LOOP('',(#152));
#141=EDGE_LOOP('',(#153));
#142=EDGE_LOOP('',(#154));
#143=EDGE_LOOP('',(#155));
#144=EDGE_LOOP('',(#156));
#145=EDGE_LOOP('',(#157));
#146=EDGE_LOOP('',(#158));
#147=EDGE_LOOP('',(#159));
#148=EDGE_LOOP('',(#160));
#149=EDGE_LOOP('',(#161));
#150=EDGE_LOOP('',(#162));
#151=EDGE_LOOP('',(#163));
#152=ORIENTED_EDGE('',*,*,#170,.T.);
#153=ORIENTED_EDGE('',*,*,#171,.T.);
#154=ORIENTED_EDGE('',*,*,#172,.T.);
#155=ORIENTED_EDGE('',*,*,#173,.T.);
#156=ORIENTED_EDGE('',*,*,#170,.F.);
#157=ORIENTED_EDGE('',*,*,#172,.F.);
#158=ORIENTED_EDGE('',*,*,#173,.F.);
#159=ORIENTED_EDGE('',*,*,#171,.F.);
#160=ORIENTED_EDGE('',*,*,#174,.F.);
#161=ORIENTED_EDGE('',*,*,#174,.T.);
#162=ORIENTED_EDGE('',*,*,#175,.F.);
#163=ORIENTED_EDGE('',*,*,#175,.T.);
#164=VERTEX_POINT('',#226);
#165=VERTEX_POINT('',#228);
#166=VERTEX_POINT('',#231);
#167=VERTEX_POINT('',#233);
#168=VERTEX_POINT('',#238);
#169=VERTEX_POINT('',#241);
#170=EDGE_CURVE('',#164,#164,#176,.T.);
#171=EDGE_CURVE('',#165,#165,#177,.T.);
#172=EDGE_CURVE('',#166,#166,#178,.T.);
#173=EDGE_CURVE('',#167,#167,#179,.T.);
#174=EDGE_CURVE('',#168,#168,#180,.T.);
#175=EDGE_CURVE('',#169,#169,#181,.T.);
#176=CIRCLE('',#183,10.85);
#177=CIRCLE('',#184,10.85);
#178=CIRCLE('',#186,9.15);
#179=CIRCLE('',#187,9.15);
#180=CIRCLE('',#191,9.2);
#181=CIRCLE('',#193,9.2);
#182=AXIS2_PLACEMENT_3D('',#224,#196,#197);
#183=AXIS2_PLACEMENT_3D('',#225,#198,#199);
#184=AXIS2_PLACEMENT_3D('',#227,#200,#201);
#185=AXIS2_PLACEMENT_3D('',#229,#202,#203);
#186=AXIS2_PLACEMENT_3D('',#230,#204,#205);
#187=AXIS2_PLACEMENT_3D('',#232,#206,#207);
#188=AXIS2_PLACEMENT_3D('',#234,#208,#209);
#189=AXIS2_PLACEMENT_3D('',#235,#210,#211);
#190=AXIS2_PLACEMENT_3D('',#236,#212,#213);
#191=AXIS2_PLACEMENT_3D('',#237,#214,#215);
#192=AXIS2_PLACEMENT_3D('',#239,#216,#217);
#193=AXIS2_PLACEMENT_3D('',#240,#218,#219);
#194=AXIS2_PLACEMENT_3D('',#242,#220,#221);
#195=AXIS2_PLACEMENT_3D('',#243,#222,#223);
#196=DIRECTION('',(0.,0.,1.));
#197=DIRECTION('',(1.,0.,0.));
#198=DIRECTION('',(0.,0.,1.));
#199=DIRECTION('',(-1.,0.,0.));
#200=DIRECTION('',(0.,0.,-1.));
#201=DIRECTION('',(1.,0.,0.));
#202=DIRECTION('',(0.,0.,-1.));
#203=DIRECTION('',(-1.,0.,0.));
#204=DIRECTION('',(0.,0.,-1.));
#205=DIRECTION('',(1.,0.,0.));
#206=DIRECTION('',(0.,0.,1.));
#207=DIRECTION('',(-1.,0.,0.));
#208=DIRECTION('',(0.,0.,-1.));
#209=DIRECTION('',(-1.,0.,0.));
#210=DIRECTION('',(0.,0.,1.));
#211=DIRECTION('',(1.,0.,-2.1491160286142E-017));
#212=DIRECTION('',(0.,0.,-1.));
#213=DIRECTION('',(-1.,0.,-7.03602537617343E-017));
#214=DIRECTION('',(0.,0.,1.));
#215=DIRECTION('',(1.,0.,0.));
#216=DIRECTION('',(0.,0.,-1.));
#217=DIRECTION('',(-1.,0.,0.));
#218=DIRECTION('',(0.,0.,1.));
#219=DIRECTION('',(1.,0.,0.));
#220=DIRECTION('',(0.,0.,1.));
#221=DIRECTION('',(1.,0.,0.));
#222=DIRECTION('',(0.,0.,1.));
#223=DIRECTION('',(1.,0.,0.));
#224=CARTESIAN_POINT('',(0.,0.,0.));
#225=CARTESIAN_POINT('',(0.,0.,-3.975));
#226=CARTESIAN_POINT('',(-10.85,0.,-3.975));
#227=CARTESIAN_POINT('',(0.,0.,-1.875));
#228=CARTESIAN_POINT('',(10.85,0.,-1.875));
#229=CARTESIAN_POINT('',(0.,0.,-5.85));
#230=CARTESIAN_POINT('',(0.,0.,-5.675));
#231=CARTESIAN_POINT('',(9.15,0.,-5.675));
#232=CARTESIAN_POINT('',(0.,0.,-0.175));
#233=CARTESIAN_POINT('',(-9.15,0.,-0.175));
#234=CARTESIAN_POINT('',(0.,0.,-5.85));
#235=CARTESIAN_POINT('',(0.,0.,-5.85));
#236=CARTESIAN_POINT('',(0.,0.,-1.875));
#237=CARTESIAN_POINT('',(0.,0.,-5.85));
#238=CARTESIAN_POINT('',(9.2,0.,-5.85));
#239=CARTESIAN_POINT('',(0.,9.2,-5.85));
#240=CARTESIAN_POINT('',(0.,0.,-8.67361737988404E-016));
#241=CARTESIAN_POINT('',(9.2,0.,-8.67361737988404E-016));
#242=CARTESIAN_POINT('',(0.,0.,-5.85));
#243=CARTESIAN_POINT('',(0.,6.,-2.22044604925032E-016));
#244=MECHANICAL_DESIGN_GEOMETRIC_PRESENTATION_REPRESENTATION('',(#98,#99),
#245);
#245=(
GEOMETRIC_REPRESENTATION_CONTEXT(3)
GLOBAL_UNCERTAINTY_ASSIGNED_CONTEXT((#246))
GLOBAL_UNIT_ASSIGNED_CONTEXT((#252,#248,#247))
REPRESENTATION_CONTEXT('327R12_22_20045_CH_SIM',
'TOP_LEVEL_ASSEMBLY_PART')
);
#246=UNCERTAINTY_MEASURE_WITH_UNIT(LENGTH_MEASURE(2.E-005),#252,
'DISTANCE_ACCURACY_VALUE','Maximum Tolerance applied to model');
#247=(
NAMED_UNIT(*)
SI_UNIT($,.STERADIAN.)
SOLID_ANGLE_UNIT()
);
#248=(
CONVERSION_BASED_UNIT('DEGREE',#250)
NAMED_UNIT(#249)
PLANE_ANGLE_UNIT()
);
#249=DIMENSIONAL_EXPONENTS(0.,0.,0.,0.,0.,0.,0.);
#250=PLANE_ANGLE_MEASURE_WITH_UNIT(PLANE_ANGLE_MEASURE(0.0174532925),#251);
#251=(
NAMED_UNIT(*)
PLANE_ANGLE_UNIT()
SI_UNIT($,.RADIAN.)
);
#252=(
LENGTH_UNIT()
NAMED_UNIT(*)
SI_UNIT(.MILLI.,.METRE.)
);
ENDSEC;
END-ISO-10303-21;
