ISO-10303-21;
HEADER;
/* Generated by software containing ST-Developer
 * from STEP Tools, Inc. (www.steptools.com) 
 */
/* OPTION: using custom schema-name function */

FILE_DESCRIPTION(
/* description */ ('3-D model version:1'),
/* implementation_level */ '2;1');

FILE_NAME(
/* name */ '327R12-22 13045-GC  1025',
/* time_stamp */ '2015-10-29T15:25:40+01:00',
/* author */ ('InteractiveCad'),
/* organization */ ('AB Sandvik Coromant'),
/* preprocessor_version */ 'ST-DEVELOPER v15',
/* originating_system */ 'SIEMENS PLM Software NX 8.5',
/* authorisation */ '');

FILE_SCHEMA (('AP203_CONFIGURATION_CONTROLLED_3D_DESIGN_OF_MECHANICAL_PARTS_AND_ASSEMBLIES_MIM_LF { 1 0 10303 403 2 1 2}'));
ENDSEC;

DATA;
#10=SHAPE_REPRESENTATION_RELATIONSHIP('None',
'relationship between 327R12_22_13045_GC_SIM-None and 327R12_22_13045_
GC_SIM-None',#92,#11);
#11=ADVANCED_BREP_SHAPE_REPRESENTATION('327R12_22_13045_GC_SIM-None',(#110,
#111),#345);
#12=CC_DESIGN_APPROVAL(#24,(#82));
#13=CC_DESIGN_APPROVAL(#25,(#84));
#14=CC_DESIGN_APPROVAL(#26,(#31));
#15=APPROVAL_PERSON_ORGANIZATION(#69,#24,#18);
#16=APPROVAL_PERSON_ORGANIZATION(#70,#25,#19);
#17=APPROVAL_PERSON_ORGANIZATION(#71,#26,#20);
#18=APPROVAL_ROLE('approver');
#19=APPROVAL_ROLE('approver');
#20=APPROVAL_ROLE('approver');
#21=APPROVAL_DATE_TIME(#39,#24);
#22=APPROVAL_DATE_TIME(#40,#25);
#23=APPROVAL_DATE_TIME(#41,#26);
#24=APPROVAL(#27,' ');
#25=APPROVAL(#28,' ');
#26=APPROVAL(#29,' ');
#27=APPROVAL_STATUS('not_yet_approved');
#28=APPROVAL_STATUS('not_yet_approved');
#29=APPROVAL_STATUS('not_yet_approved');
#30=CC_DESIGN_SECURITY_CLASSIFICATION(#31,(#84));
#31=SECURITY_CLASSIFICATION(' ',' ',#32);
#32=SECURITY_CLASSIFICATION_LEVEL('confidential');
#33=CC_DESIGN_DATE_AND_TIME_ASSIGNMENT(#37,#35,(#82));
#34=CC_DESIGN_DATE_AND_TIME_ASSIGNMENT(#38,#36,(#31));
#35=DATE_TIME_ROLE('creation_date');
#36=DATE_TIME_ROLE('classification_date');
#37=DATE_AND_TIME(#52,#42);
#38=DATE_AND_TIME(#53,#43);
#39=DATE_AND_TIME(#54,#44);
#40=DATE_AND_TIME(#55,#45);
#41=DATE_AND_TIME(#56,#46);
#42=LOCAL_TIME(0,0,0.,#47);
#43=LOCAL_TIME(0,0,0.,#48);
#44=LOCAL_TIME(0,0,0.,#49);
#45=LOCAL_TIME(0,0,0.,#50);
#46=LOCAL_TIME(0,0,0.,#51);
#47=COORDINATED_UNIVERSAL_TIME_OFFSET(0,0,.BEHIND.);
#48=COORDINATED_UNIVERSAL_TIME_OFFSET(0,0,.BEHIND.);
#49=COORDINATED_UNIVERSAL_TIME_OFFSET(0,0,.BEHIND.);
#50=COORDINATED_UNIVERSAL_TIME_OFFSET(0,0,.BEHIND.);
#51=COORDINATED_UNIVERSAL_TIME_OFFSET(0,0,.BEHIND.);
#52=CALENDAR_DATE(0,1,1);
#53=CALENDAR_DATE(0,1,1);
#54=CALENDAR_DATE(0,1,1);
#55=CALENDAR_DATE(0,1,1);
#56=CALENDAR_DATE(0,1,1);
#57=CC_DESIGN_PERSON_AND_ORGANIZATION_ASSIGNMENT(#65,#61,(#82,#84));
#58=CC_DESIGN_PERSON_AND_ORGANIZATION_ASSIGNMENT(#66,#62,(#86));
#59=CC_DESIGN_PERSON_AND_ORGANIZATION_ASSIGNMENT(#67,#63,(#84));
#60=CC_DESIGN_PERSON_AND_ORGANIZATION_ASSIGNMENT(#68,#64,(#31));
#61=PERSON_AND_ORGANIZATION_ROLE('creator');
#62=PERSON_AND_ORGANIZATION_ROLE('design_owner');
#63=PERSON_AND_ORGANIZATION_ROLE('design_supplier');
#64=PERSON_AND_ORGANIZATION_ROLE('classification_officer');
#65=PERSON_AND_ORGANIZATION(#79,#72);
#66=PERSON_AND_ORGANIZATION(#79,#73);
#67=PERSON_AND_ORGANIZATION(#79,#74);
#68=PERSON_AND_ORGANIZATION(#79,#75);
#69=PERSON_AND_ORGANIZATION(#79,#76);
#70=PERSON_AND_ORGANIZATION(#79,#77);
#71=PERSON_AND_ORGANIZATION(#79,#78);
#72=ORGANIZATION(' ',' ',' ');
#73=ORGANIZATION(' ',' ',' ');
#74=ORGANIZATION(' ',' ',' ');
#75=ORGANIZATION(' ',' ',' ');
#76=ORGANIZATION(' ',' ',' ');
#77=ORGANIZATION(' ',' ',' ');
#78=ORGANIZATION(' ',' ',' ');
#79=PERSON(' ',' ',' ',(' '),$,$);
#80=SHAPE_DEFINITION_REPRESENTATION(#81,#92);
#81=PRODUCT_DEFINITION_SHAPE('','',#82);
#82=PRODUCT_DEFINITION(' ','',#84,#83);
#83=DESIGN_CONTEXT('',#91,'design');
#84=PRODUCT_DEFINITION_FORMATION_WITH_SPECIFIED_SOURCE(' ',' ',#86,
 .NOT_KNOWN.);
#85=PRODUCT_RELATED_PRODUCT_CATEGORY('detail','',(#86));
#86=PRODUCT('327R12_22_13045_GC_SIM','327R12_22_13045_GC_SIM',' ',(#89));
#87=PRODUCT_CATEGORY('part',' ');
#88=PRODUCT_CATEGORY(' ','');
#89=MECHANICAL_CONTEXT(' ',#91,'mechanical');
#90=APPLICATION_PROTOCOL_DEFINITION('international standard',
'config_control_design',2010,#91);
#91=APPLICATION_CONTEXT(
'configuration controlled 3D designs of mechanical parts and assemblie
s');
#92=SHAPE_REPRESENTATION('327R12_22_13045_GC_SIM-None',(#237),#345);
#93=PRESENTATION_LAYER_ASSIGNMENT('1','Layer 1',(#110,#111));
#94=STYLED_ITEM('',(#96),#110);
#95=STYLED_ITEM('',(#97),#111);
#96=PRESENTATION_STYLE_ASSIGNMENT((#98));
#97=PRESENTATION_STYLE_ASSIGNMENT((#99));
#98=SURFACE_STYLE_USAGE(.BOTH.,#100);
#99=SURFACE_STYLE_USAGE(.BOTH.,#101);
#100=SURFACE_SIDE_STYLE('',(#102));
#101=SURFACE_SIDE_STYLE('',(#103));
#102=SURFACE_STYLE_FILL_AREA(#104);
#103=SURFACE_STYLE_FILL_AREA(#105);
#104=FILL_AREA_STYLE('',(#106));
#105=FILL_AREA_STYLE('',(#107));
#106=FILL_AREA_STYLE_COLOUR('',#108);
#107=FILL_AREA_STYLE_COLOUR('',#109);
#108=COLOUR_RGB('TLS_NOCUT',0.499992370489052,0.499992370489052,0.499992370489052);
#109=COLOUR_RGB('TLS_CUT',0.8,0.8,0.8);
#110=MANIFOLD_SOLID_BREP('',#112);
#111=MANIFOLD_SOLID_BREP('',#113);
#112=CLOSED_SHELL('',(#142,#143,#144,#145,#146,#147));
#113=CLOSED_SHELL('',(#148,#149,#150,#151,#152,#153));
#114=CYLINDRICAL_SURFACE('',#245,9.85);
#115=CYLINDRICAL_SURFACE('',#255,10.85);
#116=CYLINDRICAL_SURFACE('',#260,9.85);
#117=CONICAL_SURFACE('',#242,9.65,45.0000000000001);
#118=CONICAL_SURFACE('',#243,9.3472892242003,4.99999999999999);
#119=CONICAL_SURFACE('',#248,10.15,45.);
#120=CONICAL_SURFACE('',#253,9.65,45.0000000000001);
#121=CONICAL_SURFACE('',#259,10.15,45.);
#122=FACE_BOUND('',#161,.T.);
#123=FACE_BOUND('',#162,.T.);
#124=FACE_BOUND('',#163,.T.);
#125=FACE_BOUND('',#164,.T.);
#126=FACE_BOUND('',#165,.T.);
#127=FACE_BOUND('',#166,.T.);
#128=FACE_BOUND('',#168,.T.);
#129=FACE_BOUND('',#169,.T.);
#130=FACE_BOUND('',#170,.T.);
#131=FACE_BOUND('',#171,.T.);
#132=FACE_BOUND('',#172,.T.);
#133=FACE_BOUND('',#173,.T.);
#134=FACE_BOUND('',#174,.T.);
#135=FACE_BOUND('',#175,.T.);
#136=FACE_BOUND('',#176,.T.);
#137=FACE_BOUND('',#177,.T.);
#138=FACE_BOUND('',#178,.T.);
#139=FACE_BOUND('',#179,.T.);
#140=FACE_BOUND('',#180,.T.);
#141=FACE_BOUND('',#181,.T.);
#142=ADVANCED_FACE('',(#158),#154,.T.);
#143=ADVANCED_FACE('',(#122,#123),#117,.T.);
#144=ADVANCED_FACE('',(#124,#125),#118,.T.);
#145=ADVANCED_FACE('',(#126,#127),#114,.T.);
#146=ADVANCED_FACE('',(#159),#155,.T.);
#147=ADVANCED_FACE('',(#128,#129),#119,.T.);
#148=ADVANCED_FACE('',(#130,#131),#156,.T.);
#149=ADVANCED_FACE('',(#132,#133),#120,.T.);
#150=ADVANCED_FACE('',(#134,#135),#115,.T.);
#151=ADVANCED_FACE('',(#136,#137),#157,.T.);
#152=ADVANCED_FACE('',(#138,#139),#121,.T.);
#153=ADVANCED_FACE('',(#140,#141),#116,.F.);
#154=PLANE('',#239);
#155=PLANE('',#247);
#156=PLANE('',#251);
#157=PLANE('',#257);
#158=FACE_OUTER_BOUND('',#160,.T.);
#159=FACE_OUTER_BOUND('',#167,.T.);
#160=EDGE_LOOP('',(#182));
#161=EDGE_LOOP('',(#183));
#162=EDGE_LOOP('',(#184));
#163=EDGE_LOOP('',(#185));
#164=EDGE_LOOP('',(#186));
#165=EDGE_LOOP('',(#187));
#166=EDGE_LOOP('',(#188));
#167=EDGE_LOOP('',(#189));
#168=EDGE_LOOP('',(#190));
#169=EDGE_LOOP('',(#191));
#170=EDGE_LOOP('',(#192));
#171=EDGE_LOOP('',(#193));
#172=EDGE_LOOP('',(#194));
#173=EDGE_LOOP('',(#195));
#174=EDGE_LOOP('',(#196));
#175=EDGE_LOOP('',(#197));
#176=EDGE_LOOP('',(#198));
#177=EDGE_LOOP('',(#199));
#178=EDGE_LOOP('',(#200));
#179=EDGE_LOOP('',(#201));
#180=EDGE_LOOP('',(#202));
#181=EDGE_LOOP('',(#203));
#182=ORIENTED_EDGE('',*,*,#215,.T.);
#183=ORIENTED_EDGE('',*,*,#216,.T.);
#184=ORIENTED_EDGE('',*,*,#217,.T.);
#185=ORIENTED_EDGE('',*,*,#217,.F.);
#186=ORIENTED_EDGE('',*,*,#215,.F.);
#187=ORIENTED_EDGE('',*,*,#216,.F.);
#188=ORIENTED_EDGE('',*,*,#218,.F.);
#189=ORIENTED_EDGE('',*,*,#219,.T.);
#190=ORIENTED_EDGE('',*,*,#218,.T.);
#191=ORIENTED_EDGE('',*,*,#219,.F.);
#192=ORIENTED_EDGE('',*,*,#220,.F.);
#193=ORIENTED_EDGE('',*,*,#221,.F.);
#194=ORIENTED_EDGE('',*,*,#220,.T.);
#195=ORIENTED_EDGE('',*,*,#222,.T.);
#196=ORIENTED_EDGE('',*,*,#221,.T.);
#197=ORIENTED_EDGE('',*,*,#223,.F.);
#198=ORIENTED_EDGE('',*,*,#223,.T.);
#199=ORIENTED_EDGE('',*,*,#224,.F.);
#200=ORIENTED_EDGE('',*,*,#224,.T.);
#201=ORIENTED_EDGE('',*,*,#225,.T.);
#202=ORIENTED_EDGE('',*,*,#222,.F.);
#203=ORIENTED_EDGE('',*,*,#225,.F.);
#204=VERTEX_POINT('',#311);
#205=VERTEX_POINT('',#314);
#206=VERTEX_POINT('',#316);
#207=VERTEX_POINT('',#320);
#208=VERTEX_POINT('',#323);
#209=VERTEX_POINT('',#327);
#210=VERTEX_POINT('',#329);
#211=VERTEX_POINT('',#332);
#212=VERTEX_POINT('',#335);
#213=VERTEX_POINT('',#338);
#214=VERTEX_POINT('',#341);
#215=EDGE_CURVE('',#204,#204,#226,.T.);
#216=EDGE_CURVE('',#205,#205,#227,.T.);
#217=EDGE_CURVE('',#206,#206,#228,.T.);
#218=EDGE_CURVE('',#207,#207,#229,.T.);
#219=EDGE_CURVE('',#208,#208,#230,.T.);
#220=EDGE_CURVE('',#209,#209,#231,.T.);
#221=EDGE_CURVE('',#210,#210,#232,.T.);
#222=EDGE_CURVE('',#211,#211,#233,.T.);
#223=EDGE_CURVE('',#212,#212,#234,.T.);
#224=EDGE_CURVE('',#213,#213,#235,.T.);
#225=EDGE_CURVE('',#214,#214,#236,.T.);
#226=CIRCLE('',#238,9.3472892242003);
#227=CIRCLE('',#240,9.85);
#228=CIRCLE('',#241,9.63082464074058);
#229=CIRCLE('',#244,9.85);
#230=CIRCLE('',#246,9.47);
#231=CIRCLE('',#249,10.15);
#232=CIRCLE('',#250,10.85);
#233=CIRCLE('',#252,9.85);
#234=CIRCLE('',#254,10.85);
#235=CIRCLE('',#256,10.15);
#236=CIRCLE('',#258,9.85);
#237=AXIS2_PLACEMENT_3D('',#309,#261,#262);
#238=AXIS2_PLACEMENT_3D('',#310,#263,#264);
#239=AXIS2_PLACEMENT_3D('',#312,#265,#266);
#240=AXIS2_PLACEMENT_3D('',#313,#267,#268);
#241=AXIS2_PLACEMENT_3D('',#315,#269,#270);
#242=AXIS2_PLACEMENT_3D('',#317,#271,#272);
#243=AXIS2_PLACEMENT_3D('',#318,#273,#274);
#244=AXIS2_PLACEMENT_3D('',#319,#275,#276);
#245=AXIS2_PLACEMENT_3D('',#321,#277,#278);
#246=AXIS2_PLACEMENT_3D('',#322,#279,#280);
#247=AXIS2_PLACEMENT_3D('',#324,#281,#282);
#248=AXIS2_PLACEMENT_3D('',#325,#283,#284);
#249=AXIS2_PLACEMENT_3D('',#326,#285,#286);
#250=AXIS2_PLACEMENT_3D('',#328,#287,#288);
#251=AXIS2_PLACEMENT_3D('',#330,#289,#290);
#252=AXIS2_PLACEMENT_3D('',#331,#291,#292);
#253=AXIS2_PLACEMENT_3D('',#333,#293,#294);
#254=AXIS2_PLACEMENT_3D('',#334,#295,#296);
#255=AXIS2_PLACEMENT_3D('',#336,#297,#298);
#256=AXIS2_PLACEMENT_3D('',#337,#299,#300);
#257=AXIS2_PLACEMENT_3D('',#339,#301,#302);
#258=AXIS2_PLACEMENT_3D('',#340,#303,#304);
#259=AXIS2_PLACEMENT_3D('',#342,#305,#306);
#260=AXIS2_PLACEMENT_3D('',#343,#307,#308);
#261=DIRECTION('',(0.,0.,1.));
#262=DIRECTION('',(1.,0.,0.));
#263=DIRECTION('',(0.,0.,1.));
#264=DIRECTION('',(1.,0.,0.));
#265=DIRECTION('',(0.,0.,1.));
#266=DIRECTION('',(1.,0.,0.));
#267=DIRECTION('',(0.,0.,1.));
#268=DIRECTION('',(-1.,0.,0.));
#269=DIRECTION('',(0.,0.,-1.));
#270=DIRECTION('',(-1.,0.,0.));
#271=DIRECTION('',(0.,0.,-1.));
#272=DIRECTION('',(-1.,0.,-4.03763697176793E-017));
#273=DIRECTION('',(0.,0.,-1.));
#274=DIRECTION('',(-1.,0.,0.));
#275=DIRECTION('',(0.,0.,-1.));
#276=DIRECTION('',(1.,0.,0.));
#277=DIRECTION('',(0.,0.,-1.));
#278=DIRECTION('',(-1.,0.,0.));
#279=DIRECTION('',(0.,0.,-1.));
#280=DIRECTION('',(-1.,0.,0.));
#281=DIRECTION('',(0.,0.,-1.));
#282=DIRECTION('',(-1.,0.,0.));
#283=DIRECTION('',(0.,0.,1.));
#284=DIRECTION('',(1.,0.,-7.72781828628979E-018));
#285=DIRECTION('',(0.,0.,1.));
#286=DIRECTION('',(1.,0.,0.));
#287=DIRECTION('',(0.,0.,-1.));
#288=DIRECTION('',(-1.,0.,0.));
#289=DIRECTION('',(0.,0.,1.));
#290=DIRECTION('',(1.,0.,0.));
#291=DIRECTION('',(0.,0.,-1.));
#292=DIRECTION('',(-1.,0.,0.));
#293=DIRECTION('',(0.,0.,-1.));
#294=DIRECTION('',(-1.,0.,-4.03763697176793E-017));
#295=DIRECTION('',(0.,0.,-1.));
#296=DIRECTION('',(-1.,0.,0.));
#297=DIRECTION('',(0.,0.,-1.));
#298=DIRECTION('',(-1.,0.,0.));
#299=DIRECTION('',(0.,0.,-1.));
#300=DIRECTION('',(-1.,0.,0.));
#301=DIRECTION('',(0.,0.,-1.));
#302=DIRECTION('',(-1.,0.,0.));
#303=DIRECTION('',(0.,0.,1.));
#304=DIRECTION('',(1.,0.,0.));
#305=DIRECTION('',(0.,0.,1.));
#306=DIRECTION('',(1.,0.,-7.72781828628979E-018));
#307=DIRECTION('',(0.,0.,-1.));
#308=DIRECTION('',(-1.,0.,0.));
#309=CARTESIAN_POINT('',(0.,0.,0.));
#310=CARTESIAN_POINT('',(0.,0.,0.));
#311=CARTESIAN_POINT('',(9.3472892242003,0.,0.));
#312=CARTESIAN_POINT('',(0.,0.,0.));
#313=CARTESIAN_POINT('',(0.,0.,-3.46));
#314=CARTESIAN_POINT('',(-9.85,0.,-3.46));
#315=CARTESIAN_POINT('',(0.,0.,-3.24082464074058));
#316=CARTESIAN_POINT('',(-9.63082464074058,0.,-3.24082464074058));
#317=CARTESIAN_POINT('',(0.,0.,-3.26));
#318=CARTESIAN_POINT('',(0.,0.,0.));
#319=CARTESIAN_POINT('',(0.,0.,-5.47));
#320=CARTESIAN_POINT('',(9.85,0.,-5.47));
#321=CARTESIAN_POINT('',(0.,0.,0.));
#322=CARTESIAN_POINT('',(0.,0.,-5.85));
#323=CARTESIAN_POINT('',(-9.47,0.,-5.85));
#324=CARTESIAN_POINT('',(0.,10.15,-5.85));
#325=CARTESIAN_POINT('',(0.,0.,-5.17));
#326=CARTESIAN_POINT('',(0.,0.,-3.76));
#327=CARTESIAN_POINT('',(10.15,0.,-3.76));
#328=CARTESIAN_POINT('',(0.,0.,-3.76));
#329=CARTESIAN_POINT('',(-10.85,0.,-3.76));
#330=CARTESIAN_POINT('',(0.,10.85,-3.76));
#331=CARTESIAN_POINT('',(0.,0.,-3.46));
#332=CARTESIAN_POINT('',(-9.85,0.,-3.46));
#333=CARTESIAN_POINT('',(0.,0.,-3.26));
#334=CARTESIAN_POINT('',(0.,0.,-5.17));
#335=CARTESIAN_POINT('',(-10.85,0.,-5.17));
#336=CARTESIAN_POINT('',(0.,0.,-5.85));
#337=CARTESIAN_POINT('',(0.,0.,-5.17));
#338=CARTESIAN_POINT('',(-10.15,0.,-5.17));
#339=CARTESIAN_POINT('',(0.,10.15,-5.17));
#340=CARTESIAN_POINT('',(0.,0.,-5.47));
#341=CARTESIAN_POINT('',(9.85,0.,-5.47));
#342=CARTESIAN_POINT('',(0.,0.,-5.17));
#343=CARTESIAN_POINT('',(0.,0.,0.));
#344=MECHANICAL_DESIGN_GEOMETRIC_PRESENTATION_REPRESENTATION('',(#94,#95),
#345);
#345=(
GEOMETRIC_REPRESENTATION_CONTEXT(3)
GLOBAL_UNCERTAINTY_ASSIGNED_CONTEXT((#346))
GLOBAL_UNIT_ASSIGNED_CONTEXT((#352,#348,#347))
REPRESENTATION_CONTEXT('327R12_22_13045_GC_SIM',
'TOP_LEVEL_ASSEMBLY_PART')
);
#346=UNCERTAINTY_MEASURE_WITH_UNIT(LENGTH_MEASURE(2.E-005),#352,
'DISTANCE_ACCURACY_VALUE','Maximum Tolerance applied to model');
#347=(
NAMED_UNIT(*)
SI_UNIT($,.STERADIAN.)
SOLID_ANGLE_UNIT()
);
#348=(
CONVERSION_BASED_UNIT('DEGREE',#350)
NAMED_UNIT(#349)
PLANE_ANGLE_UNIT()
);
#349=DIMENSIONAL_EXPONENTS(0.,0.,0.,0.,0.,0.,0.);
#350=PLANE_ANGLE_MEASURE_WITH_UNIT(PLANE_ANGLE_MEASURE(0.0174532925),#351);
#351=(
NAMED_UNIT(*)
PLANE_ANGLE_UNIT()
SI_UNIT($,.RADIAN.)
);
#352=(
LENGTH_UNIT()
NAMED_UNIT(*)
SI_UNIT(.MILLI.,.METRE.)
);
ENDSEC;
END-ISO-10303-21;
