ISO-10303-21;
HEADER;
/* Generated by software containing ST-Developer
 * from STEP Tools, Inc. (www.steptools.com) 
 */
/* OPTION: using custom schema-name function */

FILE_DESCRIPTION(
/* description */ ('3-D model version:1'),
/* implementation_level */ '2;1');

FILE_NAME(
/* name */ '327R12-22 100VM-THM 1025',
/* time_stamp */ '2015-10-28T13:55:16+01:00',
/* author */ ('InteractiveCad'),
/* organization */ ('AB Sandvik Coromant'),
/* preprocessor_version */ 'ST-DEVELOPER v15',
/* originating_system */ 'SIEMENS PLM Software NX 8.5',
/* authorisation */ '');

FILE_SCHEMA (('AP203_CONFIGURATION_CONTROLLED_3D_DESIGN_OF_MECHANICAL_PARTS_AND_ASSEMBLIES_MIM_LF { 1 0 10303 403 2 1 2}'));
ENDSEC;

DATA;
#10=SHAPE_REPRESENTATION_RELATIONSHIP('None',
'relationship between 327R12_22_100VM_THM_SIM-None and 327R12_22_100VM
_THM_SIM-None',#92,#11);
#11=ADVANCED_BREP_SHAPE_REPRESENTATION('327R12_22_100VM_THM_SIM-None',(#132,
#133,#134,#135),#509);
#12=CC_DESIGN_APPROVAL(#24,(#82));
#13=CC_DESIGN_APPROVAL(#25,(#84));
#14=CC_DESIGN_APPROVAL(#26,(#31));
#15=APPROVAL_PERSON_ORGANIZATION(#69,#24,#18);
#16=APPROVAL_PERSON_ORGANIZATION(#70,#25,#19);
#17=APPROVAL_PERSON_ORGANIZATION(#71,#26,#20);
#18=APPROVAL_ROLE('approver');
#19=APPROVAL_ROLE('approver');
#20=APPROVAL_ROLE('approver');
#21=APPROVAL_DATE_TIME(#39,#24);
#22=APPROVAL_DATE_TIME(#40,#25);
#23=APPROVAL_DATE_TIME(#41,#26);
#24=APPROVAL(#27,' ');
#25=APPROVAL(#28,' ');
#26=APPROVAL(#29,' ');
#27=APPROVAL_STATUS('not_yet_approved');
#28=APPROVAL_STATUS('not_yet_approved');
#29=APPROVAL_STATUS('not_yet_approved');
#30=CC_DESIGN_SECURITY_CLASSIFICATION(#31,(#84));
#31=SECURITY_CLASSIFICATION(' ',' ',#32);
#32=SECURITY_CLASSIFICATION_LEVEL('confidential');
#33=CC_DESIGN_DATE_AND_TIME_ASSIGNMENT(#37,#35,(#82));
#34=CC_DESIGN_DATE_AND_TIME_ASSIGNMENT(#38,#36,(#31));
#35=DATE_TIME_ROLE('creation_date');
#36=DATE_TIME_ROLE('classification_date');
#37=DATE_AND_TIME(#52,#42);
#38=DATE_AND_TIME(#53,#43);
#39=DATE_AND_TIME(#54,#44);
#40=DATE_AND_TIME(#55,#45);
#41=DATE_AND_TIME(#56,#46);
#42=LOCAL_TIME(0,0,0.,#47);
#43=LOCAL_TIME(0,0,0.,#48);
#44=LOCAL_TIME(0,0,0.,#49);
#45=LOCAL_TIME(0,0,0.,#50);
#46=LOCAL_TIME(0,0,0.,#51);
#47=COORDINATED_UNIVERSAL_TIME_OFFSET(0,0,.BEHIND.);
#48=COORDINATED_UNIVERSAL_TIME_OFFSET(0,0,.BEHIND.);
#49=COORDINATED_UNIVERSAL_TIME_OFFSET(0,0,.BEHIND.);
#50=COORDINATED_UNIVERSAL_TIME_OFFSET(0,0,.BEHIND.);
#51=COORDINATED_UNIVERSAL_TIME_OFFSET(0,0,.BEHIND.);
#52=CALENDAR_DATE(0,1,1);
#53=CALENDAR_DATE(0,1,1);
#54=CALENDAR_DATE(0,1,1);
#55=CALENDAR_DATE(0,1,1);
#56=CALENDAR_DATE(0,1,1);
#57=CC_DESIGN_PERSON_AND_ORGANIZATION_ASSIGNMENT(#65,#61,(#82,#84));
#58=CC_DESIGN_PERSON_AND_ORGANIZATION_ASSIGNMENT(#66,#62,(#86));
#59=CC_DESIGN_PERSON_AND_ORGANIZATION_ASSIGNMENT(#67,#63,(#84));
#60=CC_DESIGN_PERSON_AND_ORGANIZATION_ASSIGNMENT(#68,#64,(#31));
#61=PERSON_AND_ORGANIZATION_ROLE('creator');
#62=PERSON_AND_ORGANIZATION_ROLE('design_owner');
#63=PERSON_AND_ORGANIZATION_ROLE('design_supplier');
#64=PERSON_AND_ORGANIZATION_ROLE('classification_officer');
#65=PERSON_AND_ORGANIZATION(#79,#72);
#66=PERSON_AND_ORGANIZATION(#79,#73);
#67=PERSON_AND_ORGANIZATION(#79,#74);
#68=PERSON_AND_ORGANIZATION(#79,#75);
#69=PERSON_AND_ORGANIZATION(#79,#76);
#70=PERSON_AND_ORGANIZATION(#79,#77);
#71=PERSON_AND_ORGANIZATION(#79,#78);
#72=ORGANIZATION(' ',' ',' ');
#73=ORGANIZATION(' ',' ',' ');
#74=ORGANIZATION(' ',' ',' ');
#75=ORGANIZATION(' ',' ',' ');
#76=ORGANIZATION(' ',' ',' ');
#77=ORGANIZATION(' ',' ',' ');
#78=ORGANIZATION(' ',' ',' ');
#79=PERSON(' ',' ',' ',(' '),$,$);
#80=SHAPE_DEFINITION_REPRESENTATION(#81,#92);
#81=PRODUCT_DEFINITION_SHAPE('','',#82);
#82=PRODUCT_DEFINITION(' ','',#84,#83);
#83=DESIGN_CONTEXT('',#91,'design');
#84=PRODUCT_DEFINITION_FORMATION_WITH_SPECIFIED_SOURCE(' ',' ',#86,
 .NOT_KNOWN.);
#85=PRODUCT_RELATED_PRODUCT_CATEGORY('detail','',(#86));
#86=PRODUCT('327R12_22_100VM_THM_SIM','327R12_22_100VM_THM_SIM',' ',(#89));
#87=PRODUCT_CATEGORY('part',' ');
#88=PRODUCT_CATEGORY(' ','');
#89=MECHANICAL_CONTEXT(' ',#91,'mechanical');
#90=APPLICATION_PROTOCOL_DEFINITION('international standard',
'config_control_design',2010,#91);
#91=APPLICATION_CONTEXT(
'configuration controlled 3D designs of mechanical parts and assemblie
s');
#92=SHAPE_REPRESENTATION('327R12_22_100VM_THM_SIM-None',(#334),#509);
#93=PLANE('',#346);
#94=PLANE('',#352);
#95=PLANE('',#365);
#96=PLANE('',#371);
#97=FACE_OUTER_BOUND('',#218,.T.);
#98=FACE_OUTER_BOUND('',#223,.T.);
#99=FACE_OUTER_BOUND('',#236,.T.);
#100=FACE_OUTER_BOUND('',#241,.T.);
#101=PRESENTATION_LAYER_ASSIGNMENT('1','Layer 1',(#132,#133,#134,#135));
#102=STYLED_ITEM('',(#106),#132);
#103=STYLED_ITEM('',(#107),#133);
#104=STYLED_ITEM('',(#108),#134);
#105=STYLED_ITEM('',(#109),#135);
#106=PRESENTATION_STYLE_ASSIGNMENT((#110));
#107=PRESENTATION_STYLE_ASSIGNMENT((#111));
#108=PRESENTATION_STYLE_ASSIGNMENT((#112));
#109=PRESENTATION_STYLE_ASSIGNMENT((#113));
#110=SURFACE_STYLE_USAGE(.BOTH.,#114);
#111=SURFACE_STYLE_USAGE(.BOTH.,#115);
#112=SURFACE_STYLE_USAGE(.BOTH.,#116);
#113=SURFACE_STYLE_USAGE(.BOTH.,#117);
#114=SURFACE_SIDE_STYLE('',(#118));
#115=SURFACE_SIDE_STYLE('',(#119));
#116=SURFACE_SIDE_STYLE('',(#120));
#117=SURFACE_SIDE_STYLE('',(#121));
#118=SURFACE_STYLE_FILL_AREA(#122);
#119=SURFACE_STYLE_FILL_AREA(#123);
#120=SURFACE_STYLE_FILL_AREA(#124);
#121=SURFACE_STYLE_FILL_AREA(#125);
#122=FILL_AREA_STYLE('',(#126));
#123=FILL_AREA_STYLE('',(#127));
#124=FILL_AREA_STYLE('',(#128));
#125=FILL_AREA_STYLE('',(#129));
#126=FILL_AREA_STYLE_COLOUR('',#130);
#127=FILL_AREA_STYLE_COLOUR('',#130);
#128=FILL_AREA_STYLE_COLOUR('',#130);
#129=FILL_AREA_STYLE_COLOUR('',#131);
#130=COLOUR_RGB('TLS_CUT',0.8,0.8,0.8);
#131=COLOUR_RGB('TLS_NOCUT',0.499992370489052,0.499992370489052,0.499992370489052);
#132=MANIFOLD_SOLID_BREP('',#136);
#133=MANIFOLD_SOLID_BREP('',#137);
#134=MANIFOLD_SOLID_BREP('',#138);
#135=MANIFOLD_SOLID_BREP('',#139);
#136=CLOSED_SHELL('',(#148,#149,#150,#151));
#137=CLOSED_SHELL('',(#152,#153,#154,#155,#156,#157));
#138=CLOSED_SHELL('',(#158,#159,#160,#161));
#139=CLOSED_SHELL('',(#162,#163,#164,#165,#166,#167));
#140=CYLINDRICAL_SURFACE('',#339,8.85);
#141=CYLINDRICAL_SURFACE('',#342,7.66);
#142=CYLINDRICAL_SURFACE('',#345,7.36);
#143=CYLINDRICAL_SURFACE('',#350,7.66);
#144=CYLINDRICAL_SURFACE('',#358,10.85);
#145=CYLINDRICAL_SURFACE('',#361,9.66);
#146=CYLINDRICAL_SURFACE('',#364,9.36);
#147=CYLINDRICAL_SURFACE('',#369,9.66);
#148=ADVANCED_FACE('',(#176,#177),#168,.T.);
#149=ADVANCED_FACE('',(#178,#179),#140,.T.);
#150=ADVANCED_FACE('',(#180,#181),#169,.T.);
#151=ADVANCED_FACE('',(#182,#183),#141,.F.);
#152=ADVANCED_FACE('',(#184,#185),#142,.T.);
#153=ADVANCED_FACE('',(#97),#93,.T.);
#154=ADVANCED_FACE('',(#186,#187),#170,.T.);
#155=ADVANCED_FACE('',(#188,#189),#143,.T.);
#156=ADVANCED_FACE('',(#98),#94,.T.);
#157=ADVANCED_FACE('',(#190,#191),#171,.T.);
#158=ADVANCED_FACE('',(#192,#193),#172,.T.);
#159=ADVANCED_FACE('',(#194,#195),#144,.T.);
#160=ADVANCED_FACE('',(#196,#197),#173,.T.);
#161=ADVANCED_FACE('',(#198,#199),#145,.F.);
#162=ADVANCED_FACE('',(#200,#201),#146,.T.);
#163=ADVANCED_FACE('',(#99),#95,.T.);
#164=ADVANCED_FACE('',(#202,#203),#174,.T.);
#165=ADVANCED_FACE('',(#204,#205),#147,.T.);
#166=ADVANCED_FACE('',(#100),#96,.T.);
#167=ADVANCED_FACE('',(#206,#207),#175,.T.);
#168=CONICAL_SURFACE('',#337,7.48600998903951,60.);
#169=CONICAL_SURFACE('',#341,8.85,60.);
#170=CONICAL_SURFACE('',#348,8.85,60.);
#171=CONICAL_SURFACE('',#353,7.48600998903951,60.);
#172=CONICAL_SURFACE('',#356,9.48600998903951,60.);
#173=CONICAL_SURFACE('',#360,10.85,60.);
#174=CONICAL_SURFACE('',#367,10.85,60.);
#175=CONICAL_SURFACE('',#372,9.48600998903951,60.);
#176=FACE_BOUND('',#208,.T.);
#177=FACE_BOUND('',#209,.T.);
#178=FACE_BOUND('',#210,.T.);
#179=FACE_BOUND('',#211,.T.);
#180=FACE_BOUND('',#212,.T.);
#181=FACE_BOUND('',#213,.T.);
#182=FACE_BOUND('',#214,.T.);
#183=FACE_BOUND('',#215,.T.);
#184=FACE_BOUND('',#216,.T.);
#185=FACE_BOUND('',#217,.T.);
#186=FACE_BOUND('',#219,.T.);
#187=FACE_BOUND('',#220,.T.);
#188=FACE_BOUND('',#221,.T.);
#189=FACE_BOUND('',#222,.T.);
#190=FACE_BOUND('',#224,.T.);
#191=FACE_BOUND('',#225,.T.);
#192=FACE_BOUND('',#226,.T.);
#193=FACE_BOUND('',#227,.T.);
#194=FACE_BOUND('',#228,.T.);
#195=FACE_BOUND('',#229,.T.);
#196=FACE_BOUND('',#230,.T.);
#197=FACE_BOUND('',#231,.T.);
#198=FACE_BOUND('',#232,.T.);
#199=FACE_BOUND('',#233,.T.);
#200=FACE_BOUND('',#234,.T.);
#201=FACE_BOUND('',#235,.T.);
#202=FACE_BOUND('',#237,.T.);
#203=FACE_BOUND('',#238,.T.);
#204=FACE_BOUND('',#239,.T.);
#205=FACE_BOUND('',#240,.T.);
#206=FACE_BOUND('',#242,.T.);
#207=FACE_BOUND('',#243,.T.);
#208=EDGE_LOOP('',(#244));
#209=EDGE_LOOP('',(#245));
#210=EDGE_LOOP('',(#246));
#211=EDGE_LOOP('',(#247));
#212=EDGE_LOOP('',(#248));
#213=EDGE_LOOP('',(#249));
#214=EDGE_LOOP('',(#250));
#215=EDGE_LOOP('',(#251));
#216=EDGE_LOOP('',(#252));
#217=EDGE_LOOP('',(#253));
#218=EDGE_LOOP('',(#254));
#219=EDGE_LOOP('',(#255));
#220=EDGE_LOOP('',(#256));
#221=EDGE_LOOP('',(#257));
#222=EDGE_LOOP('',(#258));
#223=EDGE_LOOP('',(#259));
#224=EDGE_LOOP('',(#260));
#225=EDGE_LOOP('',(#261));
#226=EDGE_LOOP('',(#262));
#227=EDGE_LOOP('',(#263));
#228=EDGE_LOOP('',(#264));
#229=EDGE_LOOP('',(#265));
#230=EDGE_LOOP('',(#266));
#231=EDGE_LOOP('',(#267));
#232=EDGE_LOOP('',(#268));
#233=EDGE_LOOP('',(#269));
#234=EDGE_LOOP('',(#270));
#235=EDGE_LOOP('',(#271));
#236=EDGE_LOOP('',(#272));
#237=EDGE_LOOP('',(#273));
#238=EDGE_LOOP('',(#274));
#239=EDGE_LOOP('',(#275));
#240=EDGE_LOOP('',(#276));
#241=EDGE_LOOP('',(#277));
#242=EDGE_LOOP('',(#278));
#243=EDGE_LOOP('',(#279));
#244=ORIENTED_EDGE('',*,*,#298,.T.);
#245=ORIENTED_EDGE('',*,*,#299,.F.);
#246=ORIENTED_EDGE('',*,*,#300,.T.);
#247=ORIENTED_EDGE('',*,*,#298,.F.);
#248=ORIENTED_EDGE('',*,*,#300,.F.);
#249=ORIENTED_EDGE('',*,*,#301,.F.);
#250=ORIENTED_EDGE('',*,*,#299,.T.);
#251=ORIENTED_EDGE('',*,*,#301,.T.);
#252=ORIENTED_EDGE('',*,*,#302,.T.);
#253=ORIENTED_EDGE('',*,*,#303,.F.);
#254=ORIENTED_EDGE('',*,*,#302,.F.);
#255=ORIENTED_EDGE('',*,*,#304,.F.);
#256=ORIENTED_EDGE('',*,*,#303,.T.);
#257=ORIENTED_EDGE('',*,*,#305,.T.);
#258=ORIENTED_EDGE('',*,*,#304,.T.);
#259=ORIENTED_EDGE('',*,*,#306,.T.);
#260=ORIENTED_EDGE('',*,*,#305,.F.);
#261=ORIENTED_EDGE('',*,*,#306,.F.);
#262=ORIENTED_EDGE('',*,*,#307,.T.);
#263=ORIENTED_EDGE('',*,*,#308,.F.);
#264=ORIENTED_EDGE('',*,*,#309,.T.);
#265=ORIENTED_EDGE('',*,*,#307,.F.);
#266=ORIENTED_EDGE('',*,*,#309,.F.);
#267=ORIENTED_EDGE('',*,*,#310,.F.);
#268=ORIENTED_EDGE('',*,*,#308,.T.);
#269=ORIENTED_EDGE('',*,*,#310,.T.);
#270=ORIENTED_EDGE('',*,*,#311,.T.);
#271=ORIENTED_EDGE('',*,*,#312,.F.);
#272=ORIENTED_EDGE('',*,*,#311,.F.);
#273=ORIENTED_EDGE('',*,*,#313,.F.);
#274=ORIENTED_EDGE('',*,*,#312,.T.);
#275=ORIENTED_EDGE('',*,*,#314,.T.);
#276=ORIENTED_EDGE('',*,*,#313,.T.);
#277=ORIENTED_EDGE('',*,*,#315,.T.);
#278=ORIENTED_EDGE('',*,*,#314,.F.);
#279=ORIENTED_EDGE('',*,*,#315,.F.);
#280=VERTEX_POINT('',#453);
#281=VERTEX_POINT('',#455);
#282=VERTEX_POINT('',#458);
#283=VERTEX_POINT('',#461);
#284=VERTEX_POINT('',#465);
#285=VERTEX_POINT('',#467);
#286=VERTEX_POINT('',#471);
#287=VERTEX_POINT('',#474);
#288=VERTEX_POINT('',#477);
#289=VERTEX_POINT('',#481);
#290=VERTEX_POINT('',#483);
#291=VERTEX_POINT('',#486);
#292=VERTEX_POINT('',#489);
#293=VERTEX_POINT('',#493);
#294=VERTEX_POINT('',#495);
#295=VERTEX_POINT('',#499);
#296=VERTEX_POINT('',#502);
#297=VERTEX_POINT('',#505);
#298=EDGE_CURVE('',#280,#280,#316,.T.);
#299=EDGE_CURVE('',#281,#281,#317,.T.);
#300=EDGE_CURVE('',#282,#282,#318,.T.);
#301=EDGE_CURVE('',#283,#283,#319,.T.);
#302=EDGE_CURVE('',#284,#284,#320,.T.);
#303=EDGE_CURVE('',#285,#285,#321,.T.);
#304=EDGE_CURVE('',#286,#286,#322,.T.);
#305=EDGE_CURVE('',#287,#287,#323,.T.);
#306=EDGE_CURVE('',#288,#288,#324,.T.);
#307=EDGE_CURVE('',#289,#289,#325,.T.);
#308=EDGE_CURVE('',#290,#290,#326,.T.);
#309=EDGE_CURVE('',#291,#291,#327,.T.);
#310=EDGE_CURVE('',#292,#292,#328,.T.);
#311=EDGE_CURVE('',#293,#293,#329,.T.);
#312=EDGE_CURVE('',#294,#294,#330,.T.);
#313=EDGE_CURVE('',#295,#295,#331,.T.);
#314=EDGE_CURVE('',#296,#296,#332,.T.);
#315=EDGE_CURVE('',#297,#297,#333,.T.);
#316=CIRCLE('',#335,8.85);
#317=CIRCLE('',#336,7.66);
#318=CIRCLE('',#338,8.85);
#319=CIRCLE('',#340,7.66);
#320=CIRCLE('',#343,7.36);
#321=CIRCLE('',#344,7.36);
#322=CIRCLE('',#347,7.66);
#323=CIRCLE('',#349,7.66);
#324=CIRCLE('',#351,7.48600998903951);
#325=CIRCLE('',#354,10.85);
#326=CIRCLE('',#355,9.66);
#327=CIRCLE('',#357,10.85);
#328=CIRCLE('',#359,9.66);
#329=CIRCLE('',#362,9.36);
#330=CIRCLE('',#363,9.36);
#331=CIRCLE('',#366,9.66);
#332=CIRCLE('',#368,9.66);
#333=CIRCLE('',#370,9.48600998903951);
#334=AXIS2_PLACEMENT_3D('',#451,#373,#374);
#335=AXIS2_PLACEMENT_3D('',#452,#375,#376);
#336=AXIS2_PLACEMENT_3D('',#454,#377,#378);
#337=AXIS2_PLACEMENT_3D('',#456,#379,#380);
#338=AXIS2_PLACEMENT_3D('',#457,#381,#382);
#339=AXIS2_PLACEMENT_3D('',#459,#383,#384);
#340=AXIS2_PLACEMENT_3D('',#460,#385,#386);
#341=AXIS2_PLACEMENT_3D('',#462,#387,#388);
#342=AXIS2_PLACEMENT_3D('',#463,#389,#390);
#343=AXIS2_PLACEMENT_3D('',#464,#391,#392);
#344=AXIS2_PLACEMENT_3D('',#466,#393,#394);
#345=AXIS2_PLACEMENT_3D('',#468,#395,#396);
#346=AXIS2_PLACEMENT_3D('',#469,#397,#398);
#347=AXIS2_PLACEMENT_3D('',#470,#399,#400);
#348=AXIS2_PLACEMENT_3D('',#472,#401,#402);
#349=AXIS2_PLACEMENT_3D('',#473,#403,#404);
#350=AXIS2_PLACEMENT_3D('',#475,#405,#406);
#351=AXIS2_PLACEMENT_3D('',#476,#407,#408);
#352=AXIS2_PLACEMENT_3D('',#478,#409,#410);
#353=AXIS2_PLACEMENT_3D('',#479,#411,#412);
#354=AXIS2_PLACEMENT_3D('',#480,#413,#414);
#355=AXIS2_PLACEMENT_3D('',#482,#415,#416);
#356=AXIS2_PLACEMENT_3D('',#484,#417,#418);
#357=AXIS2_PLACEMENT_3D('',#485,#419,#420);
#358=AXIS2_PLACEMENT_3D('',#487,#421,#422);
#359=AXIS2_PLACEMENT_3D('',#488,#423,#424);
#360=AXIS2_PLACEMENT_3D('',#490,#425,#426);
#361=AXIS2_PLACEMENT_3D('',#491,#427,#428);
#362=AXIS2_PLACEMENT_3D('',#492,#429,#430);
#363=AXIS2_PLACEMENT_3D('',#494,#431,#432);
#364=AXIS2_PLACEMENT_3D('',#496,#433,#434);
#365=AXIS2_PLACEMENT_3D('',#497,#435,#436);
#366=AXIS2_PLACEMENT_3D('',#498,#437,#438);
#367=AXIS2_PLACEMENT_3D('',#500,#439,#440);
#368=AXIS2_PLACEMENT_3D('',#501,#441,#442);
#369=AXIS2_PLACEMENT_3D('',#503,#443,#444);
#370=AXIS2_PLACEMENT_3D('',#504,#445,#446);
#371=AXIS2_PLACEMENT_3D('',#506,#447,#448);
#372=AXIS2_PLACEMENT_3D('',#507,#449,#450);
#373=DIRECTION('',(0.,0.,1.));
#374=DIRECTION('',(1.,0.,0.));
#375=DIRECTION('',(0.,0.,-1.));
#376=DIRECTION('',(-1.,0.,0.));
#377=DIRECTION('',(0.,0.,-1.));
#378=DIRECTION('',(1.,0.,0.));
#379=DIRECTION('',(0.,0.,1.));
#380=DIRECTION('',(1.,0.,-1.24654121895228E-017));
#381=DIRECTION('',(0.,0.,-1.));
#382=DIRECTION('',(-1.,0.,0.));
#383=DIRECTION('',(0.,0.,-1.));
#384=DIRECTION('',(-1.,0.,0.));
#385=DIRECTION('',(0.,0.,1.));
#386=DIRECTION('',(-1.,0.,0.));
#387=DIRECTION('',(0.,0.,-1.));
#388=DIRECTION('',(-1.,0.,-2.242016204472E-017));
#389=DIRECTION('',(0.,0.,-1.));
#390=DIRECTION('',(-1.,0.,0.));
#391=DIRECTION('',(0.,0.,-1.));
#392=DIRECTION('',(-1.,0.,0.));
#393=DIRECTION('',(0.,0.,-1.));
#394=DIRECTION('',(-1.,0.,0.));
#395=DIRECTION('',(0.,0.,-1.));
#396=DIRECTION('',(-1.,0.,0.));
#397=DIRECTION('',(0.,0.,1.));
#398=DIRECTION('',(1.,0.,0.));
#399=DIRECTION('',(0.,0.,-1.));
#400=DIRECTION('',(-1.,0.,0.));
#401=DIRECTION('',(0.,0.,-1.));
#402=DIRECTION('',(-1.,0.,-2.242016204472E-017));
#403=DIRECTION('',(0.,0.,1.));
#404=DIRECTION('',(1.,0.,0.));
#405=DIRECTION('',(0.,0.,-1.));
#406=DIRECTION('',(-1.,0.,0.));
#407=DIRECTION('',(0.,0.,-1.));
#408=DIRECTION('',(-1.,0.,0.));
#409=DIRECTION('',(0.,0.,-1.));
#410=DIRECTION('',(-1.,0.,0.));
#411=DIRECTION('',(0.,0.,1.));
#412=DIRECTION('',(1.,0.,-1.24654121895228E-017));
#413=DIRECTION('',(0.,0.,-1.));
#414=DIRECTION('',(-1.,0.,0.));
#415=DIRECTION('',(0.,0.,-1.));
#416=DIRECTION('',(1.,0.,0.));
#417=DIRECTION('',(0.,0.,1.));
#418=DIRECTION('',(1.,0.,-1.24510967733181E-017));
#419=DIRECTION('',(0.,0.,-1.));
#420=DIRECTION('',(-1.,0.,0.));
#421=DIRECTION('',(0.,0.,-1.));
#422=DIRECTION('',(-1.,0.,0.));
#423=DIRECTION('',(0.,0.,1.));
#424=DIRECTION('',(-1.,0.,0.));
#425=DIRECTION('',(0.,0.,-1.));
#426=DIRECTION('',(-1.,0.,-2.23944346344769E-017));
#427=DIRECTION('',(0.,0.,-1.));
#428=DIRECTION('',(-1.,0.,0.));
#429=DIRECTION('',(0.,0.,-1.));
#430=DIRECTION('',(-1.,0.,0.));
#431=DIRECTION('',(0.,0.,-1.));
#432=DIRECTION('',(-1.,0.,0.));
#433=DIRECTION('',(0.,0.,-1.));
#434=DIRECTION('',(-1.,0.,0.));
#435=DIRECTION('',(0.,0.,1.));
#436=DIRECTION('',(1.,0.,0.));
#437=DIRECTION('',(0.,0.,-1.));
#438=DIRECTION('',(-1.,0.,0.));
#439=DIRECTION('',(0.,0.,-1.));
#440=DIRECTION('',(-1.,0.,-2.23944346344769E-017));
#441=DIRECTION('',(0.,0.,1.));
#442=DIRECTION('',(1.,0.,0.));
#443=DIRECTION('',(0.,0.,-1.));
#444=DIRECTION('',(-1.,0.,0.));
#445=DIRECTION('',(0.,0.,-1.));
#446=DIRECTION('',(-1.,0.,0.));
#447=DIRECTION('',(0.,0.,-1.));
#448=DIRECTION('',(-1.,0.,0.));
#449=DIRECTION('',(0.,0.,1.));
#450=DIRECTION('',(1.,0.,-1.24510967733181E-017));
#451=CARTESIAN_POINT('',(0.,0.,0.));
#452=CARTESIAN_POINT('',(0.,0.,-5.0625));
#453=CARTESIAN_POINT('',(-8.85,0.,-5.0625));
#454=CARTESIAN_POINT('',(0.,0.,-5.74954682033566));
#455=CARTESIAN_POINT('',(7.66,0.,-5.74954682033566));
#456=CARTESIAN_POINT('',(0.,0.,-5.85));
#457=CARTESIAN_POINT('',(0.,0.,-4.9375));
#458=CARTESIAN_POINT('',(-8.85,0.,-4.9375));
#459=CARTESIAN_POINT('',(0.,0.,-5.85));
#460=CARTESIAN_POINT('',(0.,0.,-4.25045317966435));
#461=CARTESIAN_POINT('',(-7.66,0.,-4.25045317966435));
#462=CARTESIAN_POINT('',(0.,0.,-4.9375));
#463=CARTESIAN_POINT('',(0.,0.,0.));
#464=CARTESIAN_POINT('',(0.,0.,-8.67361737988404E-016));
#465=CARTESIAN_POINT('',(-7.36,0.,-8.67361737988404E-016));
#466=CARTESIAN_POINT('',(0.,0.,-4.07724809890746));
#467=CARTESIAN_POINT('',(-7.36,0.,-4.07724809890746));
#468=CARTESIAN_POINT('',(0.,0.,-5.85));
#469=CARTESIAN_POINT('',(0.,7.36,-5.91046825747745E-016));
#470=CARTESIAN_POINT('',(0.,0.,-4.25045317966435));
#471=CARTESIAN_POINT('',(-7.66,0.,-4.25045317966435));
#472=CARTESIAN_POINT('',(0.,0.,-4.9375));
#473=CARTESIAN_POINT('',(0.,0.,-5.74954682033566));
#474=CARTESIAN_POINT('',(7.66,0.,-5.74954682033566));
#475=CARTESIAN_POINT('',(0.,0.,0.));
#476=CARTESIAN_POINT('',(0.,0.,-5.85));
#477=CARTESIAN_POINT('',(-7.48600998903951,0.,-5.85));
#478=CARTESIAN_POINT('',(0.,6.56,-5.85));
#479=CARTESIAN_POINT('',(0.,0.,-5.85));
#480=CARTESIAN_POINT('',(0.,0.,-5.0625));
#481=CARTESIAN_POINT('',(-10.85,0.,-5.0625));
#482=CARTESIAN_POINT('',(0.,0.,-5.74954682033566));
#483=CARTESIAN_POINT('',(9.66,0.,-5.74954682033566));
#484=CARTESIAN_POINT('',(0.,0.,-5.85));
#485=CARTESIAN_POINT('',(0.,0.,-4.9375));
#486=CARTESIAN_POINT('',(-10.85,0.,-4.9375));
#487=CARTESIAN_POINT('',(0.,0.,-5.85));
#488=CARTESIAN_POINT('',(0.,0.,-4.25045317966435));
#489=CARTESIAN_POINT('',(-9.66,0.,-4.25045317966435));
#490=CARTESIAN_POINT('',(0.,0.,-4.9375));
#491=CARTESIAN_POINT('',(0.,0.,0.));
#492=CARTESIAN_POINT('',(0.,0.,0.));
#493=CARTESIAN_POINT('',(-9.36,0.,0.));
#494=CARTESIAN_POINT('',(0.,0.,-4.07724809890745));
#495=CARTESIAN_POINT('',(-9.36,0.,-4.07724809890745));
#496=CARTESIAN_POINT('',(0.,0.,-5.85));
#497=CARTESIAN_POINT('',(0.,9.36,-1.24072860993243E-016));
#498=CARTESIAN_POINT('',(0.,0.,-4.25045317966435));
#499=CARTESIAN_POINT('',(-9.66,0.,-4.25045317966435));
#500=CARTESIAN_POINT('',(0.,0.,-4.9375));
#501=CARTESIAN_POINT('',(0.,0.,-5.74954682033566));
#502=CARTESIAN_POINT('',(9.66,0.,-5.74954682033566));
#503=CARTESIAN_POINT('',(0.,0.,0.));
#504=CARTESIAN_POINT('',(0.,0.,-5.85));
#505=CARTESIAN_POINT('',(-9.48600998903951,0.,-5.85));
#506=CARTESIAN_POINT('',(0.,8.56,-5.85));
#507=CARTESIAN_POINT('',(0.,0.,-5.85));
#508=MECHANICAL_DESIGN_GEOMETRIC_PRESENTATION_REPRESENTATION('',(#102,#103,
#104,#105),#509);
#509=(
GEOMETRIC_REPRESENTATION_CONTEXT(3)
GLOBAL_UNCERTAINTY_ASSIGNED_CONTEXT((#510))
GLOBAL_UNIT_ASSIGNED_CONTEXT((#516,#512,#511))
REPRESENTATION_CONTEXT('327R12_22_100VM_THM_SIM',
'TOP_LEVEL_ASSEMBLY_PART')
);
#510=UNCERTAINTY_MEASURE_WITH_UNIT(LENGTH_MEASURE(2.E-005),#516,
'DISTANCE_ACCURACY_VALUE','Maximum Tolerance applied to model');
#511=(
NAMED_UNIT(*)
SI_UNIT($,.STERADIAN.)
SOLID_ANGLE_UNIT()
);
#512=(
CONVERSION_BASED_UNIT('DEGREE',#514)
NAMED_UNIT(#513)
PLANE_ANGLE_UNIT()
);
#513=DIMENSIONAL_EXPONENTS(0.,0.,0.,0.,0.,0.,0.);
#514=PLANE_ANGLE_MEASURE_WITH_UNIT(PLANE_ANGLE_MEASURE(0.0174532925),#515);
#515=(
NAMED_UNIT(*)
PLANE_ANGLE_UNIT()
SI_UNIT($,.RADIAN.)
);
#516=(
LENGTH_UNIT()
NAMED_UNIT(*)
SI_UNIT(.MILLI.,.METRE.)
);
ENDSEC;
END-ISO-10303-21;
