ISO-10303-21;
HEADER;
/* Generated by software containing ST-Developer
 * from STEP Tools, Inc. (www.steptools.com) 
 */
/* OPTION: using custom schema-name function */

FILE_DESCRIPTION(
/* description */ ('3-D model version:1'),
/* implementation_level */ '2;1');

FILE_NAME(
/* name */ '327R09-18 300MM-THM 1025',
/* time_stamp */ '2015-10-28T13:54:53+01:00',
/* author */ ('InteractiveCad'),
/* organization */ ('AB Sandvik Coromant'),
/* preprocessor_version */ 'ST-DEVELOPER v15',
/* originating_system */ 'SIEMENS PLM Software NX 8.5',
/* authorisation */ '');

FILE_SCHEMA (('AP203_CONFIGURATION_CONTROLLED_3D_DESIGN_OF_MECHANICAL_PARTS_AND_ASSEMBLIES_MIM_LF { 1 0 10303 403 2 1 2}'));
ENDSEC;

DATA;
#10=SHAPE_REPRESENTATION_RELATIONSHIP('None',
'relationship between 327R09_18_300MM_THM_SIM-None and 327R09_18_300MM
_THM_SIM-None',#92,#11);
#11=ADVANCED_BREP_SHAPE_REPRESENTATION('327R09_18_300MM_THM_SIM-None',(#110,
#111),#326);
#12=CC_DESIGN_APPROVAL(#24,(#82));
#13=CC_DESIGN_APPROVAL(#25,(#84));
#14=CC_DESIGN_APPROVAL(#26,(#31));
#15=APPROVAL_PERSON_ORGANIZATION(#69,#24,#18);
#16=APPROVAL_PERSON_ORGANIZATION(#70,#25,#19);
#17=APPROVAL_PERSON_ORGANIZATION(#71,#26,#20);
#18=APPROVAL_ROLE('approver');
#19=APPROVAL_ROLE('approver');
#20=APPROVAL_ROLE('approver');
#21=APPROVAL_DATE_TIME(#39,#24);
#22=APPROVAL_DATE_TIME(#40,#25);
#23=APPROVAL_DATE_TIME(#41,#26);
#24=APPROVAL(#27,' ');
#25=APPROVAL(#28,' ');
#26=APPROVAL(#29,' ');
#27=APPROVAL_STATUS('not_yet_approved');
#28=APPROVAL_STATUS('not_yet_approved');
#29=APPROVAL_STATUS('not_yet_approved');
#30=CC_DESIGN_SECURITY_CLASSIFICATION(#31,(#84));
#31=SECURITY_CLASSIFICATION(' ',' ',#32);
#32=SECURITY_CLASSIFICATION_LEVEL('confidential');
#33=CC_DESIGN_DATE_AND_TIME_ASSIGNMENT(#37,#35,(#82));
#34=CC_DESIGN_DATE_AND_TIME_ASSIGNMENT(#38,#36,(#31));
#35=DATE_TIME_ROLE('creation_date');
#36=DATE_TIME_ROLE('classification_date');
#37=DATE_AND_TIME(#52,#42);
#38=DATE_AND_TIME(#53,#43);
#39=DATE_AND_TIME(#54,#44);
#40=DATE_AND_TIME(#55,#45);
#41=DATE_AND_TIME(#56,#46);
#42=LOCAL_TIME(0,0,0.,#47);
#43=LOCAL_TIME(0,0,0.,#48);
#44=LOCAL_TIME(0,0,0.,#49);
#45=LOCAL_TIME(0,0,0.,#50);
#46=LOCAL_TIME(0,0,0.,#51);
#47=COORDINATED_UNIVERSAL_TIME_OFFSET(0,0,.BEHIND.);
#48=COORDINATED_UNIVERSAL_TIME_OFFSET(0,0,.BEHIND.);
#49=COORDINATED_UNIVERSAL_TIME_OFFSET(0,0,.BEHIND.);
#50=COORDINATED_UNIVERSAL_TIME_OFFSET(0,0,.BEHIND.);
#51=COORDINATED_UNIVERSAL_TIME_OFFSET(0,0,.BEHIND.);
#52=CALENDAR_DATE(0,1,1);
#53=CALENDAR_DATE(0,1,1);
#54=CALENDAR_DATE(0,1,1);
#55=CALENDAR_DATE(0,1,1);
#56=CALENDAR_DATE(0,1,1);
#57=CC_DESIGN_PERSON_AND_ORGANIZATION_ASSIGNMENT(#65,#61,(#82,#84));
#58=CC_DESIGN_PERSON_AND_ORGANIZATION_ASSIGNMENT(#66,#62,(#86));
#59=CC_DESIGN_PERSON_AND_ORGANIZATION_ASSIGNMENT(#67,#63,(#84));
#60=CC_DESIGN_PERSON_AND_ORGANIZATION_ASSIGNMENT(#68,#64,(#31));
#61=PERSON_AND_ORGANIZATION_ROLE('creator');
#62=PERSON_AND_ORGANIZATION_ROLE('design_owner');
#63=PERSON_AND_ORGANIZATION_ROLE('design_supplier');
#64=PERSON_AND_ORGANIZATION_ROLE('classification_officer');
#65=PERSON_AND_ORGANIZATION(#79,#72);
#66=PERSON_AND_ORGANIZATION(#79,#73);
#67=PERSON_AND_ORGANIZATION(#79,#74);
#68=PERSON_AND_ORGANIZATION(#79,#75);
#69=PERSON_AND_ORGANIZATION(#79,#76);
#70=PERSON_AND_ORGANIZATION(#79,#77);
#71=PERSON_AND_ORGANIZATION(#79,#78);
#72=ORGANIZATION(' ',' ',' ');
#73=ORGANIZATION(' ',' ',' ');
#74=ORGANIZATION(' ',' ',' ');
#75=ORGANIZATION(' ',' ',' ');
#76=ORGANIZATION(' ',' ',' ');
#77=ORGANIZATION(' ',' ',' ');
#78=ORGANIZATION(' ',' ',' ');
#79=PERSON(' ',' ',' ',(' '),$,$);
#80=SHAPE_DEFINITION_REPRESENTATION(#81,#92);
#81=PRODUCT_DEFINITION_SHAPE('','',#82);
#82=PRODUCT_DEFINITION(' ','',#84,#83);
#83=DESIGN_CONTEXT('',#91,'design');
#84=PRODUCT_DEFINITION_FORMATION_WITH_SPECIFIED_SOURCE(' ',' ',#86,
 .NOT_KNOWN.);
#85=PRODUCT_RELATED_PRODUCT_CATEGORY('detail','',(#86));
#86=PRODUCT('327R09_18_300MM_THM_SIM','327R09_18_300MM_THM_SIM',' ',(#89));
#87=PRODUCT_CATEGORY('part',' ');
#88=PRODUCT_CATEGORY(' ','');
#89=MECHANICAL_CONTEXT(' ',#91,'mechanical');
#90=APPLICATION_PROTOCOL_DEFINITION('international standard',
'config_control_design',2010,#91);
#91=APPLICATION_CONTEXT(
'configuration controlled 3D designs of mechanical parts and assemblie
s');
#92=SHAPE_REPRESENTATION('327R09_18_300MM_THM_SIM-None',(#215),#326);
#93=PRESENTATION_LAYER_ASSIGNMENT('1','Layer 1',(#110,#111));
#94=STYLED_ITEM('',(#96),#110);
#95=STYLED_ITEM('',(#97),#111);
#96=PRESENTATION_STYLE_ASSIGNMENT((#98));
#97=PRESENTATION_STYLE_ASSIGNMENT((#99));
#98=SURFACE_STYLE_USAGE(.BOTH.,#100);
#99=SURFACE_STYLE_USAGE(.BOTH.,#101);
#100=SURFACE_SIDE_STYLE('',(#102));
#101=SURFACE_SIDE_STYLE('',(#103));
#102=SURFACE_STYLE_FILL_AREA(#104);
#103=SURFACE_STYLE_FILL_AREA(#105);
#104=FILL_AREA_STYLE('',(#106));
#105=FILL_AREA_STYLE('',(#107));
#106=FILL_AREA_STYLE_COLOUR('',#108);
#107=FILL_AREA_STYLE_COLOUR('',#109);
#108=COLOUR_RGB('TLS_NOCUT',0.499992370489052,0.499992370489052,0.499992370489052);
#109=COLOUR_RGB('TLS_CUT',0.8,0.8,0.8);
#110=MANIFOLD_SOLID_BREP('',#112);
#111=MANIFOLD_SOLID_BREP('',#113);
#112=CLOSED_SHELL('',(#124,#125,#126,#127,#128,#129));
#113=CLOSED_SHELL('',(#130,#131,#132,#133));
#114=CONICAL_SURFACE('',#225,7.01402614397699,60.);
#115=CONICAL_SURFACE('',#228,7.01402614397699,60.);
#116=CONICAL_SURFACE('',#232,8.85,60.);
#117=B_SPLINE_CURVE_WITH_KNOTS('',3,(#285,#286,#287,#288,#289,#290,#291,
#292,#293,#294,#295,#296,#297,#298,#299,#300,#301,#302,#303,#304,#305,#306,
#307,#308,#309),.UNSPECIFIED.,.T.,.F.,(1,3,3,3,3,3,3,3,3,3,1),(-0.125,0.,
0.125,0.25,0.375,0.5,0.625,0.75,0.875,1.,1.125),.UNSPECIFIED.);
#118=FACE_OUTER_BOUND('',#159,.T.);
#119=FACE_OUTER_BOUND('',#160,.T.);
#120=CYLINDRICAL_SURFACE('',#220,7.23);
#121=CYLINDRICAL_SURFACE('',#222,4.5);
#122=CYLINDRICAL_SURFACE('',#230,8.85);
#123=CYLINDRICAL_SURFACE('',#233,7.23);
#124=ADVANCED_FACE('',(#137,#138),#134,.T.);
#125=ADVANCED_FACE('',(#139,#140),#120,.T.);
#126=ADVANCED_FACE('',(#141,#142),#121,.T.);
#127=ADVANCED_FACE('',(#118),#135,.T.);
#128=ADVANCED_FACE('',(#119),#136,.T.);
#129=ADVANCED_FACE('',(#143,#144),#114,.T.);
#130=ADVANCED_FACE('',(#145,#146),#115,.T.);
#131=ADVANCED_FACE('',(#147,#148),#122,.T.);
#132=ADVANCED_FACE('',(#149,#150),#116,.T.);
#133=ADVANCED_FACE('',(#151,#152),#123,.F.);
#134=PLANE('',#218);
#135=PLANE('',#223);
#136=PLANE('',#224);
#137=FACE_BOUND('',#153,.T.);
#138=FACE_BOUND('',#154,.T.);
#139=FACE_BOUND('',#155,.T.);
#140=FACE_BOUND('',#156,.T.);
#141=FACE_BOUND('',#157,.T.);
#142=FACE_BOUND('',#158,.T.);
#143=FACE_BOUND('',#161,.T.);
#144=FACE_BOUND('',#162,.T.);
#145=FACE_BOUND('',#163,.T.);
#146=FACE_BOUND('',#164,.T.);
#147=FACE_BOUND('',#165,.T.);
#148=FACE_BOUND('',#166,.T.);
#149=FACE_BOUND('',#167,.T.);
#150=FACE_BOUND('',#168,.T.);
#151=FACE_BOUND('',#169,.T.);
#152=FACE_BOUND('',#170,.T.);
#153=EDGE_LOOP('',(#171));
#154=EDGE_LOOP('',(#172));
#155=EDGE_LOOP('',(#173));
#156=EDGE_LOOP('',(#174));
#157=EDGE_LOOP('',(#175));
#158=EDGE_LOOP('',(#176));
#159=EDGE_LOOP('',(#177));
#160=EDGE_LOOP('',(#178));
#161=EDGE_LOOP('',(#179));
#162=EDGE_LOOP('',(#180));
#163=EDGE_LOOP('',(#181));
#164=EDGE_LOOP('',(#182));
#165=EDGE_LOOP('',(#183));
#166=EDGE_LOOP('',(#184));
#167=EDGE_LOOP('',(#185));
#168=EDGE_LOOP('',(#186));
#169=EDGE_LOOP('',(#187));
#170=EDGE_LOOP('',(#188));
#171=ORIENTED_EDGE('',*,*,#198,.F.);
#172=ORIENTED_EDGE('',*,*,#199,.F.);
#173=ORIENTED_EDGE('',*,*,#198,.T.);
#174=ORIENTED_EDGE('',*,*,#200,.T.);
#175=ORIENTED_EDGE('',*,*,#199,.T.);
#176=ORIENTED_EDGE('',*,*,#201,.F.);
#177=ORIENTED_EDGE('',*,*,#201,.T.);
#178=ORIENTED_EDGE('',*,*,#202,.T.);
#179=ORIENTED_EDGE('',*,*,#200,.F.);
#180=ORIENTED_EDGE('',*,*,#202,.F.);
#181=ORIENTED_EDGE('',*,*,#203,.T.);
#182=ORIENTED_EDGE('',*,*,#204,.F.);
#183=ORIENTED_EDGE('',*,*,#205,.T.);
#184=ORIENTED_EDGE('',*,*,#203,.F.);
#185=ORIENTED_EDGE('',*,*,#206,.F.);
#186=ORIENTED_EDGE('',*,*,#205,.F.);
#187=ORIENTED_EDGE('',*,*,#204,.T.);
#188=ORIENTED_EDGE('',*,*,#206,.T.);
#189=VERTEX_POINT('',#274);
#190=VERTEX_POINT('',#276);
#191=VERTEX_POINT('',#279);
#192=VERTEX_POINT('',#282);
#193=VERTEX_POINT('',#310);
#194=VERTEX_POINT('',#314);
#195=VERTEX_POINT('',#316);
#196=VERTEX_POINT('',#319);
#197=VERTEX_POINT('',#322);
#198=EDGE_CURVE('',#189,#189,#207,.T.);
#199=EDGE_CURVE('',#190,#190,#208,.T.);
#200=EDGE_CURVE('',#191,#191,#209,.T.);
#201=EDGE_CURVE('',#192,#192,#210,.T.);
#202=EDGE_CURVE('',#193,#193,#117,.T.);
#203=EDGE_CURVE('',#194,#194,#211,.T.);
#204=EDGE_CURVE('',#195,#195,#212,.T.);
#205=EDGE_CURVE('',#196,#196,#213,.T.);
#206=EDGE_CURVE('',#197,#197,#214,.T.);
#207=CIRCLE('',#216,7.23);
#208=CIRCLE('',#217,4.5);
#209=CIRCLE('',#219,7.23);
#210=CIRCLE('',#221,4.5);
#211=CIRCLE('',#226,8.85);
#212=CIRCLE('',#227,7.23);
#213=CIRCLE('',#229,8.85);
#214=CIRCLE('',#231,7.23);
#215=AXIS2_PLACEMENT_3D('',#272,#234,#235);
#216=AXIS2_PLACEMENT_3D('',#273,#236,#237);
#217=AXIS2_PLACEMENT_3D('',#275,#238,#239);
#218=AXIS2_PLACEMENT_3D('',#277,#240,#241);
#219=AXIS2_PLACEMENT_3D('',#278,#242,#243);
#220=AXIS2_PLACEMENT_3D('',#280,#244,#245);
#221=AXIS2_PLACEMENT_3D('',#281,#246,#247);
#222=AXIS2_PLACEMENT_3D('',#283,#248,#249);
#223=AXIS2_PLACEMENT_3D('',#284,#250,#251);
#224=AXIS2_PLACEMENT_3D('',#311,#252,#253);
#225=AXIS2_PLACEMENT_3D('',#312,#254,#255);
#226=AXIS2_PLACEMENT_3D('',#313,#256,#257);
#227=AXIS2_PLACEMENT_3D('',#315,#258,#259);
#228=AXIS2_PLACEMENT_3D('',#317,#260,#261);
#229=AXIS2_PLACEMENT_3D('',#318,#262,#263);
#230=AXIS2_PLACEMENT_3D('',#320,#264,#265);
#231=AXIS2_PLACEMENT_3D('',#321,#266,#267);
#232=AXIS2_PLACEMENT_3D('',#323,#268,#269);
#233=AXIS2_PLACEMENT_3D('',#324,#270,#271);
#234=DIRECTION('',(0.,0.,1.));
#235=DIRECTION('',(1.,0.,0.));
#236=DIRECTION('',(0.,0.,-1.));
#237=DIRECTION('',(-1.,0.,0.));
#238=DIRECTION('',(0.,0.,1.));
#239=DIRECTION('',(1.,0.,0.));
#240=DIRECTION('',(0.,0.,1.));
#241=DIRECTION('',(1.,0.,0.));
#242=DIRECTION('',(0.,0.,1.));
#243=DIRECTION('',(1.,0.,0.));
#244=DIRECTION('',(0.,0.,-1.));
#245=DIRECTION('',(-1.,0.,0.));
#246=DIRECTION('',(0.,0.,1.));
#247=DIRECTION('',(1.,0.,0.));
#248=DIRECTION('',(0.,0.,1.));
#249=DIRECTION('',(1.,0.,0.));
#250=DIRECTION('',(0.,0.,1.));
#251=DIRECTION('',(1.,0.,0.));
#252=DIRECTION('',(0.,0.,-1.));
#253=DIRECTION('',(-1.,0.,0.));
#254=DIRECTION('',(0.,0.,1.));
#255=DIRECTION('',(1.,0.,-1.24687953142122E-017));
#256=DIRECTION('',(0.,0.,-1.));
#257=DIRECTION('',(-1.,0.,0.));
#258=DIRECTION('',(0.,0.,-1.));
#259=DIRECTION('',(1.,0.,0.));
#260=DIRECTION('',(0.,0.,1.));
#261=DIRECTION('',(1.,0.,-1.24687953142122E-017));
#262=DIRECTION('',(0.,0.,-1.));
#263=DIRECTION('',(-1.,0.,0.));
#264=DIRECTION('',(0.,0.,-1.));
#265=DIRECTION('',(-1.,0.,0.));
#266=DIRECTION('',(0.,0.,1.));
#267=DIRECTION('',(-1.,0.,0.));
#268=DIRECTION('',(0.,0.,-1.));
#269=DIRECTION('',(-1.,0.,-1.4448548873264E-017));
#270=DIRECTION('',(0.,0.,-1.));
#271=DIRECTION('',(-1.,0.,0.));
#272=CARTESIAN_POINT('',(0.,0.,0.));
#273=CARTESIAN_POINT('',(0.,0.,-2.65));
#274=CARTESIAN_POINT('',(-7.23,0.,-2.65));
#275=CARTESIAN_POINT('',(0.,0.,-2.65));
#276=CARTESIAN_POINT('',(4.5,0.,-2.65));
#277=CARTESIAN_POINT('',(0.,7.23,-2.65));
#278=CARTESIAN_POINT('',(0.,0.,-5.72530743608719));
#279=CARTESIAN_POINT('',(7.23,0.,-5.72530743608719));
#280=CARTESIAN_POINT('',(0.,0.,-5.85));
#281=CARTESIAN_POINT('',(0.,0.,0.));
#282=CARTESIAN_POINT('',(4.5,0.,0.));
#283=CARTESIAN_POINT('',(0.,0.,-5.85));
#284=CARTESIAN_POINT('',(0.,0.,0.));
#285=CARTESIAN_POINT('',(-7.01402614397699,0.,-5.85));
#286=CARTESIAN_POINT('',(-7.01402614397699,1.83627266832891,-5.85));
#287=CARTESIAN_POINT('',(-6.25697080380682,3.66215662529005,-5.85));
#288=CARTESIAN_POINT('',(-4.95966544982586,4.95966544982586,-5.85));
#289=CARTESIAN_POINT('',(-3.6623600958449,6.25717427436167,-5.85));
#290=CARTESIAN_POINT('',(-1.83481070154247,7.01388226856805,-5.85));
#291=CARTESIAN_POINT('',(0.,7.01402614397699,-5.85));
#292=CARTESIAN_POINT('',(1.83481070154247,7.01417001938593,-5.85));
#293=CARTESIAN_POINT('',(3.66215662528234,6.25697080381603,-5.85));
#294=CARTESIAN_POINT('',(4.95966544982586,4.95966544982586,-5.85));
#295=CARTESIAN_POINT('',(6.25717427436938,3.66236009583569,-5.85));
#296=CARTESIAN_POINT('',(7.01388226856803,1.83481070154224,-5.85));
#297=CARTESIAN_POINT('',(7.01402614397699,0.,-5.85));
#298=CARTESIAN_POINT('',(7.01417001938595,-1.83481070154224,-5.85));
#299=CARTESIAN_POINT('',(6.25697080379173,-3.66215662530224,-5.85));
#300=CARTESIAN_POINT('',(4.95966544982586,-4.95966544982586,-5.85));
#301=CARTESIAN_POINT('',(3.66236009585999,-6.25717427434948,-5.85));
#302=CARTESIAN_POINT('',(1.8348107015433,-7.01388226856814,-5.85));
#303=CARTESIAN_POINT('',(8.67361737988404E-016,-7.014026143977,-5.85));
#304=CARTESIAN_POINT('',(-1.8348107015433,-7.01417001938585,-5.85));
#305=CARTESIAN_POINT('',(-3.66215662529557,-6.25697080380273,-5.85));
#306=CARTESIAN_POINT('',(-4.95966544982586,-4.95966544982586,-5.85));
#307=CARTESIAN_POINT('',(-6.25717427435615,-3.662360095849,-5.85));
#308=CARTESIAN_POINT('',(-7.01402614397699,-1.83921308296021,-5.85));
#309=CARTESIAN_POINT('',(-7.01402614397699,0.,-5.85));
#310=CARTESIAN_POINT('',(-7.01402614397699,1.28845569995359E-015,-5.85));
#311=CARTESIAN_POINT('',(0.,6.33,-5.85));
#312=CARTESIAN_POINT('',(0.,0.,-5.85));
#313=CARTESIAN_POINT('',(0.,0.,-4.79));
#314=CARTESIAN_POINT('',(-8.85,0.,-4.79));
#315=CARTESIAN_POINT('',(0.,0.,-5.72530743608719));
#316=CARTESIAN_POINT('',(7.23,0.,-5.72530743608719));
#317=CARTESIAN_POINT('',(0.,0.,-5.85));
#318=CARTESIAN_POINT('',(0.,0.,-4.41));
#319=CARTESIAN_POINT('',(-8.85,0.,-4.41));
#320=CARTESIAN_POINT('',(0.,0.,-5.85));
#321=CARTESIAN_POINT('',(0.,0.,-3.47469256391281));
#322=CARTESIAN_POINT('',(-7.23,0.,-3.47469256391281));
#323=CARTESIAN_POINT('',(0.,0.,-4.41));
#324=CARTESIAN_POINT('',(0.,0.,0.));
#325=MECHANICAL_DESIGN_GEOMETRIC_PRESENTATION_REPRESENTATION('',(#94,#95),
#326);
#326=(
GEOMETRIC_REPRESENTATION_CONTEXT(3)
GLOBAL_UNCERTAINTY_ASSIGNED_CONTEXT((#327))
GLOBAL_UNIT_ASSIGNED_CONTEXT((#333,#329,#328))
REPRESENTATION_CONTEXT('327R09_18_300MM_THM_SIM',
'TOP_LEVEL_ASSEMBLY_PART')
);
#327=UNCERTAINTY_MEASURE_WITH_UNIT(LENGTH_MEASURE(0.0508),#333,
'DISTANCE_ACCURACY_VALUE','Maximum Tolerance applied to model');
#328=(
NAMED_UNIT(*)
SI_UNIT($,.STERADIAN.)
SOLID_ANGLE_UNIT()
);
#329=(
CONVERSION_BASED_UNIT('DEGREE',#331)
NAMED_UNIT(#330)
PLANE_ANGLE_UNIT()
);
#330=DIMENSIONAL_EXPONENTS(0.,0.,0.,0.,0.,0.,0.);
#331=PLANE_ANGLE_MEASURE_WITH_UNIT(PLANE_ANGLE_MEASURE(0.0174532925),#332);
#332=(
NAMED_UNIT(*)
PLANE_ANGLE_UNIT()
SI_UNIT($,.RADIAN.)
);
#333=(
LENGTH_UNIT()
NAMED_UNIT(*)
SI_UNIT(.MILLI.,.METRE.)
);
ENDSEC;
END-ISO-10303-21;
