ISO-10303-21;
HEADER;
/* Generated by software containing ST-Developer
 * from STEP Tools, Inc. (www.steptools.com) 
 */
/* OPTION: using custom schema-name function */

FILE_DESCRIPTION(
/* description */ ('3-D model version:1'),
/* implementation_level */ '2;1');

FILE_NAME(
/* name */ '327R09-18 200MM-THM 1025',
/* time_stamp */ '2015-10-28T13:54:06+01:00',
/* author */ ('InteractiveCad'),
/* organization */ ('AB Sandvik Coromant'),
/* preprocessor_version */ 'ST-DEVELOPER v15',
/* originating_system */ 'SIEMENS PLM Software NX 8.5',
/* authorisation */ '');

FILE_SCHEMA (('AP203_CONFIGURATION_CONTROLLED_3D_DESIGN_OF_MECHANICAL_PARTS_AND_ASSEMBLIES_MIM_LF { 1 0 10303 403 2 1 2}'));
ENDSEC;

DATA;
#10=SHAPE_REPRESENTATION_RELATIONSHIP('None',
'relationship between 327R09_18_200MM_THM_SIM-None and 327R09_18_200MM
_THM_SIM-None',#92,#11);
#11=ADVANCED_BREP_SHAPE_REPRESENTATION('327R09_18_200MM_THM_SIM-None',(#109,
#110),#304);
#12=CC_DESIGN_APPROVAL(#24,(#82));
#13=CC_DESIGN_APPROVAL(#25,(#84));
#14=CC_DESIGN_APPROVAL(#26,(#31));
#15=APPROVAL_PERSON_ORGANIZATION(#69,#24,#18);
#16=APPROVAL_PERSON_ORGANIZATION(#70,#25,#19);
#17=APPROVAL_PERSON_ORGANIZATION(#71,#26,#20);
#18=APPROVAL_ROLE('approver');
#19=APPROVAL_ROLE('approver');
#20=APPROVAL_ROLE('approver');
#21=APPROVAL_DATE_TIME(#39,#24);
#22=APPROVAL_DATE_TIME(#40,#25);
#23=APPROVAL_DATE_TIME(#41,#26);
#24=APPROVAL(#27,' ');
#25=APPROVAL(#28,' ');
#26=APPROVAL(#29,' ');
#27=APPROVAL_STATUS('not_yet_approved');
#28=APPROVAL_STATUS('not_yet_approved');
#29=APPROVAL_STATUS('not_yet_approved');
#30=CC_DESIGN_SECURITY_CLASSIFICATION(#31,(#84));
#31=SECURITY_CLASSIFICATION(' ',' ',#32);
#32=SECURITY_CLASSIFICATION_LEVEL('confidential');
#33=CC_DESIGN_DATE_AND_TIME_ASSIGNMENT(#37,#35,(#82));
#34=CC_DESIGN_DATE_AND_TIME_ASSIGNMENT(#38,#36,(#31));
#35=DATE_TIME_ROLE('creation_date');
#36=DATE_TIME_ROLE('classification_date');
#37=DATE_AND_TIME(#52,#42);
#38=DATE_AND_TIME(#53,#43);
#39=DATE_AND_TIME(#54,#44);
#40=DATE_AND_TIME(#55,#45);
#41=DATE_AND_TIME(#56,#46);
#42=LOCAL_TIME(0,0,0.,#47);
#43=LOCAL_TIME(0,0,0.,#48);
#44=LOCAL_TIME(0,0,0.,#49);
#45=LOCAL_TIME(0,0,0.,#50);
#46=LOCAL_TIME(0,0,0.,#51);
#47=COORDINATED_UNIVERSAL_TIME_OFFSET(0,0,.BEHIND.);
#48=COORDINATED_UNIVERSAL_TIME_OFFSET(0,0,.BEHIND.);
#49=COORDINATED_UNIVERSAL_TIME_OFFSET(0,0,.BEHIND.);
#50=COORDINATED_UNIVERSAL_TIME_OFFSET(0,0,.BEHIND.);
#51=COORDINATED_UNIVERSAL_TIME_OFFSET(0,0,.BEHIND.);
#52=CALENDAR_DATE(0,1,1);
#53=CALENDAR_DATE(0,1,1);
#54=CALENDAR_DATE(0,1,1);
#55=CALENDAR_DATE(0,1,1);
#56=CALENDAR_DATE(0,1,1);
#57=CC_DESIGN_PERSON_AND_ORGANIZATION_ASSIGNMENT(#65,#61,(#82,#84));
#58=CC_DESIGN_PERSON_AND_ORGANIZATION_ASSIGNMENT(#66,#62,(#86));
#59=CC_DESIGN_PERSON_AND_ORGANIZATION_ASSIGNMENT(#67,#63,(#84));
#60=CC_DESIGN_PERSON_AND_ORGANIZATION_ASSIGNMENT(#68,#64,(#31));
#61=PERSON_AND_ORGANIZATION_ROLE('creator');
#62=PERSON_AND_ORGANIZATION_ROLE('design_owner');
#63=PERSON_AND_ORGANIZATION_ROLE('design_supplier');
#64=PERSON_AND_ORGANIZATION_ROLE('classification_officer');
#65=PERSON_AND_ORGANIZATION(#79,#72);
#66=PERSON_AND_ORGANIZATION(#79,#73);
#67=PERSON_AND_ORGANIZATION(#79,#74);
#68=PERSON_AND_ORGANIZATION(#79,#75);
#69=PERSON_AND_ORGANIZATION(#79,#76);
#70=PERSON_AND_ORGANIZATION(#79,#77);
#71=PERSON_AND_ORGANIZATION(#79,#78);
#72=ORGANIZATION(' ',' ',' ');
#73=ORGANIZATION(' ',' ',' ');
#74=ORGANIZATION(' ',' ',' ');
#75=ORGANIZATION(' ',' ',' ');
#76=ORGANIZATION(' ',' ',' ');
#77=ORGANIZATION(' ',' ',' ');
#78=ORGANIZATION(' ',' ',' ');
#79=PERSON(' ',' ',' ',(' '),$,$);
#80=SHAPE_DEFINITION_REPRESENTATION(#81,#92);
#81=PRODUCT_DEFINITION_SHAPE('','',#82);
#82=PRODUCT_DEFINITION(' ','',#84,#83);
#83=DESIGN_CONTEXT('',#91,'design');
#84=PRODUCT_DEFINITION_FORMATION_WITH_SPECIFIED_SOURCE(' ',' ',#86,
 .NOT_KNOWN.);
#85=PRODUCT_RELATED_PRODUCT_CATEGORY('detail','',(#86));
#86=PRODUCT('327R09_18_200MM_THM_SIM','327R09_18_200MM_THM_SIM',' ',(#89));
#87=PRODUCT_CATEGORY('part',' ');
#88=PRODUCT_CATEGORY(' ','');
#89=MECHANICAL_CONTEXT(' ',#91,'mechanical');
#90=APPLICATION_PROTOCOL_DEFINITION('international standard',
'config_control_design',2010,#91);
#91=APPLICATION_CONTEXT(
'configuration controlled 3D designs of mechanical parts and assemblie
s');
#92=SHAPE_REPRESENTATION('327R09_18_200MM_THM_SIM-None',(#214),#304);
#93=PRESENTATION_LAYER_ASSIGNMENT('1','Layer 1',(#109,#110));
#94=STYLED_ITEM('',(#96),#109);
#95=STYLED_ITEM('',(#97),#110);
#96=PRESENTATION_STYLE_ASSIGNMENT((#98));
#97=PRESENTATION_STYLE_ASSIGNMENT((#99));
#98=SURFACE_STYLE_USAGE(.BOTH.,#100);
#99=SURFACE_STYLE_USAGE(.BOTH.,#101);
#100=SURFACE_SIDE_STYLE('',(#102));
#101=SURFACE_SIDE_STYLE('',(#103));
#102=SURFACE_STYLE_FILL_AREA(#104);
#103=SURFACE_STYLE_FILL_AREA(#105);
#104=FILL_AREA_STYLE('',(#106));
#105=FILL_AREA_STYLE('',(#107));
#106=FILL_AREA_STYLE_COLOUR('',#108);
#107=FILL_AREA_STYLE_COLOUR('',#108);
#108=COLOUR_RGB('TLS_CUT',0.8,0.8,0.8);
#109=MANIFOLD_SOLID_BREP('',#111);
#110=MANIFOLD_SOLID_BREP('',#112);
#111=CLOSED_SHELL('',(#121,#122,#123,#124,#125,#126));
#112=CLOSED_SHELL('',(#127,#128,#129,#130));
#113=CONICAL_SURFACE('',#225,7.24785300299879,60.);
#114=CONICAL_SURFACE('',#228,7.24785300299879,60.);
#115=CONICAL_SURFACE('',#232,8.85,60.);
#116=PLANE('',#219);
#117=PLANE('',#222);
#118=PLANE('',#224);
#119=FACE_OUTER_BOUND('',#153,.T.);
#120=FACE_OUTER_BOUND('',#158,.T.);
#121=ADVANCED_FACE('',(#135,#136),#131,.T.);
#122=ADVANCED_FACE('',(#119),#116,.T.);
#123=ADVANCED_FACE('',(#137,#138),#132,.T.);
#124=ADVANCED_FACE('',(#139,#140),#117,.T.);
#125=ADVANCED_FACE('',(#120),#118,.T.);
#126=ADVANCED_FACE('',(#141,#142),#113,.T.);
#127=ADVANCED_FACE('',(#143,#144),#114,.T.);
#128=ADVANCED_FACE('',(#145,#146),#133,.T.);
#129=ADVANCED_FACE('',(#147,#148),#115,.T.);
#130=ADVANCED_FACE('',(#149,#150),#134,.F.);
#131=CYLINDRICAL_SURFACE('',#217,7.77);
#132=CYLINDRICAL_SURFACE('',#221,4.5);
#133=CYLINDRICAL_SURFACE('',#230,8.85);
#134=CYLINDRICAL_SURFACE('',#233,7.77);
#135=FACE_BOUND('',#151,.T.);
#136=FACE_BOUND('',#152,.T.);
#137=FACE_BOUND('',#154,.T.);
#138=FACE_BOUND('',#155,.T.);
#139=FACE_BOUND('',#156,.T.);
#140=FACE_BOUND('',#157,.T.);
#141=FACE_BOUND('',#159,.T.);
#142=FACE_BOUND('',#160,.T.);
#143=FACE_BOUND('',#161,.T.);
#144=FACE_BOUND('',#162,.T.);
#145=FACE_BOUND('',#163,.T.);
#146=FACE_BOUND('',#164,.T.);
#147=FACE_BOUND('',#165,.T.);
#148=FACE_BOUND('',#166,.T.);
#149=FACE_BOUND('',#167,.T.);
#150=FACE_BOUND('',#168,.T.);
#151=EDGE_LOOP('',(#169));
#152=EDGE_LOOP('',(#170));
#153=EDGE_LOOP('',(#171));
#154=EDGE_LOOP('',(#172));
#155=EDGE_LOOP('',(#173));
#156=EDGE_LOOP('',(#174));
#157=EDGE_LOOP('',(#175));
#158=EDGE_LOOP('',(#176));
#159=EDGE_LOOP('',(#177));
#160=EDGE_LOOP('',(#178));
#161=EDGE_LOOP('',(#179));
#162=EDGE_LOOP('',(#180));
#163=EDGE_LOOP('',(#181));
#164=EDGE_LOOP('',(#182));
#165=EDGE_LOOP('',(#183));
#166=EDGE_LOOP('',(#184));
#167=EDGE_LOOP('',(#185));
#168=EDGE_LOOP('',(#186));
#169=ORIENTED_EDGE('',*,*,#196,.F.);
#170=ORIENTED_EDGE('',*,*,#197,.T.);
#171=ORIENTED_EDGE('',*,*,#198,.T.);
#172=ORIENTED_EDGE('',*,*,#199,.T.);
#173=ORIENTED_EDGE('',*,*,#198,.F.);
#174=ORIENTED_EDGE('',*,*,#196,.T.);
#175=ORIENTED_EDGE('',*,*,#199,.F.);
#176=ORIENTED_EDGE('',*,*,#200,.T.);
#177=ORIENTED_EDGE('',*,*,#197,.F.);
#178=ORIENTED_EDGE('',*,*,#200,.F.);
#179=ORIENTED_EDGE('',*,*,#201,.T.);
#180=ORIENTED_EDGE('',*,*,#202,.F.);
#181=ORIENTED_EDGE('',*,*,#203,.T.);
#182=ORIENTED_EDGE('',*,*,#201,.F.);
#183=ORIENTED_EDGE('',*,*,#204,.F.);
#184=ORIENTED_EDGE('',*,*,#203,.F.);
#185=ORIENTED_EDGE('',*,*,#202,.T.);
#186=ORIENTED_EDGE('',*,*,#204,.T.);
#187=VERTEX_POINT('',#276);
#188=VERTEX_POINT('',#278);
#189=VERTEX_POINT('',#281);
#190=VERTEX_POINT('',#284);
#191=VERTEX_POINT('',#288);
#192=VERTEX_POINT('',#292);
#193=VERTEX_POINT('',#294);
#194=VERTEX_POINT('',#297);
#195=VERTEX_POINT('',#300);
#196=EDGE_CURVE('',#187,#187,#205,.T.);
#197=EDGE_CURVE('',#188,#188,#206,.T.);
#198=EDGE_CURVE('',#189,#189,#207,.T.);
#199=EDGE_CURVE('',#190,#190,#208,.T.);
#200=EDGE_CURVE('',#191,#191,#209,.T.);
#201=EDGE_CURVE('',#192,#192,#210,.T.);
#202=EDGE_CURVE('',#193,#193,#211,.T.);
#203=EDGE_CURVE('',#194,#194,#212,.T.);
#204=EDGE_CURVE('',#195,#195,#213,.T.);
#205=CIRCLE('',#215,7.77);
#206=CIRCLE('',#216,7.77);
#207=CIRCLE('',#218,4.5);
#208=CIRCLE('',#220,4.5);
#209=CIRCLE('',#223,7.24785300299879);
#210=CIRCLE('',#226,8.85);
#211=CIRCLE('',#227,7.77);
#212=CIRCLE('',#229,8.85);
#213=CIRCLE('',#231,7.77);
#214=AXIS2_PLACEMENT_3D('',#274,#234,#235);
#215=AXIS2_PLACEMENT_3D('',#275,#236,#237);
#216=AXIS2_PLACEMENT_3D('',#277,#238,#239);
#217=AXIS2_PLACEMENT_3D('',#279,#240,#241);
#218=AXIS2_PLACEMENT_3D('',#280,#242,#243);
#219=AXIS2_PLACEMENT_3D('',#282,#244,#245);
#220=AXIS2_PLACEMENT_3D('',#283,#246,#247);
#221=AXIS2_PLACEMENT_3D('',#285,#248,#249);
#222=AXIS2_PLACEMENT_3D('',#286,#250,#251);
#223=AXIS2_PLACEMENT_3D('',#287,#252,#253);
#224=AXIS2_PLACEMENT_3D('',#289,#254,#255);
#225=AXIS2_PLACEMENT_3D('',#290,#256,#257);
#226=AXIS2_PLACEMENT_3D('',#291,#258,#259);
#227=AXIS2_PLACEMENT_3D('',#293,#260,#261);
#228=AXIS2_PLACEMENT_3D('',#295,#262,#263);
#229=AXIS2_PLACEMENT_3D('',#296,#264,#265);
#230=AXIS2_PLACEMENT_3D('',#298,#266,#267);
#231=AXIS2_PLACEMENT_3D('',#299,#268,#269);
#232=AXIS2_PLACEMENT_3D('',#301,#270,#271);
#233=AXIS2_PLACEMENT_3D('',#302,#272,#273);
#234=DIRECTION('',(0.,0.,1.));
#235=DIRECTION('',(1.,0.,0.));
#236=DIRECTION('',(0.,0.,1.));
#237=DIRECTION('',(1.,0.,0.));
#238=DIRECTION('',(0.,0.,1.));
#239=DIRECTION('',(1.,0.,0.));
#240=DIRECTION('',(0.,0.,-1.));
#241=DIRECTION('',(-1.,0.,0.));
#242=DIRECTION('',(0.,0.,1.));
#243=DIRECTION('',(1.,0.,0.));
#244=DIRECTION('',(0.,0.,1.));
#245=DIRECTION('',(1.,0.,0.));
#246=DIRECTION('',(0.,0.,1.));
#247=DIRECTION('',(1.,0.,0.));
#248=DIRECTION('',(0.,0.,1.));
#249=DIRECTION('',(1.,0.,0.));
#250=DIRECTION('',(0.,0.,1.));
#251=DIRECTION('',(1.,0.,0.));
#252=DIRECTION('',(0.,0.,-1.));
#253=DIRECTION('',(-1.,0.,0.));
#254=DIRECTION('',(0.,0.,-1.));
#255=DIRECTION('',(-1.,0.,0.));
#256=DIRECTION('',(0.,0.,1.));
#257=DIRECTION('',(1.,0.,-1.24671190412925E-017));
#258=DIRECTION('',(0.,0.,-1.));
#259=DIRECTION('',(-1.,0.,0.));
#260=DIRECTION('',(0.,0.,-1.));
#261=DIRECTION('',(1.,0.,0.));
#262=DIRECTION('',(0.,0.,1.));
#263=DIRECTION('',(1.,0.,-1.24671190412925E-017));
#264=DIRECTION('',(0.,0.,-1.));
#265=DIRECTION('',(-1.,0.,0.));
#266=DIRECTION('',(0.,0.,-1.));
#267=DIRECTION('',(-1.,0.,0.));
#268=DIRECTION('',(0.,0.,1.));
#269=DIRECTION('',(-1.,0.,0.));
#270=DIRECTION('',(0.,0.,-1.));
#271=DIRECTION('',(-1.,0.,8.968064817888E-018));
#272=DIRECTION('',(0.,0.,-1.));
#273=DIRECTION('',(-1.,0.,0.));
#274=CARTESIAN_POINT('',(0.,0.,0.));
#275=CARTESIAN_POINT('',(0.,0.,-2.65));
#276=CARTESIAN_POINT('',(7.77,0.,-2.65));
#277=CARTESIAN_POINT('',(0.,0.,-5.5485382907248));
#278=CARTESIAN_POINT('',(7.77,0.,-5.5485382907248));
#279=CARTESIAN_POINT('',(0.,0.,-5.85));
#280=CARTESIAN_POINT('',(0.,0.,0.));
#281=CARTESIAN_POINT('',(4.5,0.,0.));
#282=CARTESIAN_POINT('',(0.,0.,0.));
#283=CARTESIAN_POINT('',(0.,0.,-2.65));
#284=CARTESIAN_POINT('',(4.5,0.,-2.65));
#285=CARTESIAN_POINT('',(0.,0.,-5.85));
#286=CARTESIAN_POINT('',(0.,4.5,-2.65));
#287=CARTESIAN_POINT('',(0.,0.,-5.85));
#288=CARTESIAN_POINT('',(-7.24785300299879,0.,-5.85));
#289=CARTESIAN_POINT('',(0.,6.87,-5.85));
#290=CARTESIAN_POINT('',(0.,0.,-5.85));
#291=CARTESIAN_POINT('',(0.,0.,-4.925));
#292=CARTESIAN_POINT('',(-8.85,0.,-4.925));
#293=CARTESIAN_POINT('',(0.,0.,-5.5485382907248));
#294=CARTESIAN_POINT('',(7.77,0.,-5.5485382907248));
#295=CARTESIAN_POINT('',(0.,0.,-5.85));
#296=CARTESIAN_POINT('',(0.,0.,-4.675));
#297=CARTESIAN_POINT('',(-8.85,0.,-4.675));
#298=CARTESIAN_POINT('',(0.,0.,-5.85));
#299=CARTESIAN_POINT('',(0.,0.,-4.0514617092752));
#300=CARTESIAN_POINT('',(-7.77,0.,-4.0514617092752));
#301=CARTESIAN_POINT('',(0.,0.,-4.675));
#302=CARTESIAN_POINT('',(0.,0.,0.));
#303=MECHANICAL_DESIGN_GEOMETRIC_PRESENTATION_REPRESENTATION('',(#94,#95),
#304);
#304=(
GEOMETRIC_REPRESENTATION_CONTEXT(3)
GLOBAL_UNCERTAINTY_ASSIGNED_CONTEXT((#305))
GLOBAL_UNIT_ASSIGNED_CONTEXT((#311,#307,#306))
REPRESENTATION_CONTEXT('327R09_18_200MM_THM_SIM',
'TOP_LEVEL_ASSEMBLY_PART')
);
#305=UNCERTAINTY_MEASURE_WITH_UNIT(LENGTH_MEASURE(2.E-005),#311,
'DISTANCE_ACCURACY_VALUE','Maximum Tolerance applied to model');
#306=(
NAMED_UNIT(*)
SI_UNIT($,.STERADIAN.)
SOLID_ANGLE_UNIT()
);
#307=(
CONVERSION_BASED_UNIT('DEGREE',#309)
NAMED_UNIT(#308)
PLANE_ANGLE_UNIT()
);
#308=DIMENSIONAL_EXPONENTS(0.,0.,0.,0.,0.,0.,0.);
#309=PLANE_ANGLE_MEASURE_WITH_UNIT(PLANE_ANGLE_MEASURE(0.0174532925),#310);
#310=(
NAMED_UNIT(*)
PLANE_ANGLE_UNIT()
SI_UNIT($,.RADIAN.)
);
#311=(
LENGTH_UNIT()
NAMED_UNIT(*)
SI_UNIT(.MILLI.,.METRE.)
);
ENDSEC;
END-ISO-10303-21;
